Song: Pizza Party

Band: Heavy Heavy Low Low
Composed By: Nilo Gonzalez

Rating: -1 +1 Views: 125

alrighty i did this by ear so its not perfect
but i think its pretty good

-rutger from syracuse



    


Pizza Party

e|--------------------------------------------------------|
B|--------------------------------------------------------|
G|------------77---------------77-------------------------|
D|-0-0-3p0-0--------0-0-3p0-0-----------------------------|
A|-0-0-3p0-0--55----0-0-3p0-0--55-------------------------|
D|-0-0-3p0-0--------0-0-3p0-0-----------------------------|



    


e|--------------------------------------------------------|
B|--------------------------------------------------------|
G|------------------7-------------------------------------|
D|-0-0-3p0-0-3p0-0------33333333-22222222--0~-------------|
A|-0-0-3p0-0-3p0-0--5---33333333-22222222--0~-------------|
D|-0-0-3p0-0-3p0-0------33333333-22222222--0~-------------|


(Bass fill)


e|--------------------------------------------------------|
B|--------------------------------------------------------|
G|--------------------------------------------------------|
D|-0000000-3-0--00000-3-0---------------------------------|
A|-0000000-3-0--00000-3-0---------------------------------|
D|-0000000-3-0--00000-3-0---------------------------------|
   .......   .  .....   .

e|--------------------------------------------------------|
B|--------------------------------------------------------|
G|--------------------------------------------------------|
D|-0000000-3-0--00000-3-0--7*-----------------------------|
A|-0000000-3-0--00000-3-0---------------------------------|
D|-0000000-3-0--00000-3-0---------------------------------|
   .......   .  .....   .

e|--------------------------------------------------------|
B|--------------------------------------------------------|
G|--------------------------------------------------------|
D|-0000000-3-0--00000-3-0---------------------------------|
A|-0000000-3-0--00000-3-0---------------------------------|
D|-0000000-3-0--00000-3-0---------------------------------|
   .......   .  .....   .

e|--------------------------------------------------------|
B|--------------------------------------------------------|
G|--------------------------------------------------------|
D|-0000000-3-0--00000-3-0--7*-----------------------------|
A|-0000000-3-0--00000-3-0---------------------------------|
D|-0000000-3-0--00000-3-0---------------------------------|
   .......   .  .....   .

e|--------------------------------------------------------|
B|-----------------------12-------------------------------|
G|-----------------------15-------------------------------|
D|-1-2-2/8---1-2-2/8--0-----------------------------------|
A|-1-2-2/8---1-2-2/8--0-----------------------------------|
D|-1-2-2/8---1-2-2/8--0-----------------------------------|
   . .       . .      .

e|--------------------------------------------------------|
B|-----------------------12-------------------------------|
G|-----------------------15-------------------------------|
D|-1-2-2/10---1-2-2/10--0---------------------------------|
A|-1-2-2/10---1-2-2/10--0---------------------------------|
D|-1-2-2/10---1-2-2/10--0---------------------------------|
   . .        . .       .

e|--------------------------------------------------------|
B|-----------------------12-------------------------------|
G|-----------------------15-------------------------------|
D|-1-2-2/8---1-2-2/8--0-----------------------------------|
A|-1-2-2/8---1-2-2/8--0-----------------------------------|
D|-1-2-2/8---1-2-2/8--0-----------------------------------|
   . .       . .      .

e|--------------------------------------------------------|
B|-----------------------12-------------------------------|
G|-----------------------15-------------------------------|
D|-1-2-2/10---1-2-2/10--0---------------------------------|
A|-1-2-2/10---1-2-2/10--0---------------------------------|
D|-1-2-2/10---1-2-2/10--0---------------------------------|
   . .        . .       .

e|--------------------------------------------------------|
B|--------------------------------------------------------|
G|--------------------------------------------------------|
D|-8-7-4-5-8-7-5p4-----8-7-4-5-5p4---8p7------------------|
A|-8-7-4-5-8-7----5p4--8-7-4-5----5p4---8p7---------------|
D|-8-7-4-5-8-7---------8-7-4-5----------------------------|


e|--------------------------------------------------------|
B|--------------------------------------------------------|
G|--------------------------------------------------------|
D|-8-7-4-5-8-7-5p4-----8-7-4-5-5p4---8p7------------------|
A|-8-7-4-5-8-7----5p4--8-7-4-5----5p4---8p7---------------|
D|-8-7-4-5-8-7---------8-7-4-5----------------------------|


e|--------------------------------------------------------|
B|--------------------------------------------------------|
G|--------------------------------------------------------|
D|-8-7-4-5-8-7-4--------8-7-4-5-8-7-4---------------------|
A|-8-7-4-5-8-7-4--------8-7-4-5-8-7-4---------------------|
D|-8-7-4-5-8-7-4-8*-7*--8-7-4-5-8-7-4-7*-5*---------------|
   . . . . . . .        . . . . . . .

e|--------------------------------------------------------|
B|--------------------------------------------------------|
G|--------------------------------------------------------|
D|-8-7-4-5-8-7---5454--8-7-4-5-54545454-------------------|
A|-8-7-4-5-8-7---5454--8-7-4-5-54545454-------------------|
D|-8-7-4-5-8-7---5454--8-7-4-5-54545454-------------------|
   . . . . . .   ....  . . . . ........

e|--------------------------------------------------------|
B|--------------------------------------------------------|
G|--------------------------------------------------------|
D|-8-7-4-5-8-7---5454--8-7-4-5-5(4)/15--------------------|
A|-8-7-4-5-8-7---5454--8-7-4-5-5(4)/15--------------------|
D|-8-7-4-5-8-7---5454--8-7-4-5-5(4)/15--------------------|
   . . . . . .   ....  . . . . . . 

e|--------------------------------------------------------|
B|------------12------------------------------------------|
G|------------15------------------------------------------|
D|-0-0---0-0----------------------------------------------|
A|-0-0---0-0----------------------------------------------|
D|-0-0---0-0----------------------------------------------|
   . .   . .

e|--------------------------------------------------------|
B|--12----12----12----12----------------------------------|
G|--15----15----15----15----------------------------------|
D|--------------------------------------------------------|
A|--------------------------------------------------------|
D|--------------------------------------------------------|


e|--------------------------------------------------------|
B|-------12---------12---------12---------12---------12---|
G|-------15---------15---------15---------15---------15---|
D|-0-0-0----0-0-0-0----0-0-0-0----0-0-0-0----0-0-0-0------|
A|-0-0-0----0-0-0-0----0-0-0-0----0-0-0-0----0-0-0-0------|
D|-0-0-0----0-0-0-0----0-0-0-0----0-0-0-0----0-0-0-0------|
   . . .    . . . .    . . . .    . . . .    . . . .

e|--------------------------------------------------------|
B|--------------------------------------------------------|
G|--------------------------------------------------------|
D|-0-0-0-0---0-0-0----------------------------------------|
A|-0-0-0-0---0-0-0----------------------------------------|
D|-0-0-0-0---0-0-0----------------------------------------|
   . . . .   . . .


-rut

View Albums that This Song Appears On...

  • Heavy Heavy Low Low

    Genre: Pop/Rock Label: Ferret Music Song Duration on Album: 1:35 Album Duration: 15:43

    Release Date: 2008

    Styles: Alternative Metal, Heavy Metal, Alternative/Indie Rock, Screamo

Close panel

Help Rate This Tab by Voting Up or Down

Vote Up Vote Down
Rating: -1 +1

Other Songs Like This

x

Copyright © 2018