Song: All Day

Band: Hillsongs

Rating: -1 +1 Views: 208

----------------------------------------------------------------------------
			     All Day - Hillsongs
----------------------------------------------------------------------------

Tabbed by: Justin Ang
Written by: RO_Slasher



    

Email:orochimaroy_sama@hotmail.com

Tuning:

e|-------------------------------------------------------------------------|
B|-------------------------------------------------------------------------|
G|---------------1---------------------------------------------------------|
D|-----------2-2---2------1-2----------------------------------------------|
A|------1-2-----------2-2---------2-1--------------------------------------|
E|--4-4-----------------------2-2------------------------------------------|



    

enjoy!

Close panel

Help Rate This Tab by Voting Up or Down

Vote Up Vote Down
Rating: -1 +1

Other Songs Like This

x

Copyright © 2017