Song: Abra Cadaver Bass

Band: Hives
Composed By: Randy Fitzsimmons

Rating: -1 +1 Views: 135



    

																				Artist - The Hives
Song - Abra Cadaver
Please Rate Any comment or questions email e at bpc1331@yahoo.com

Intro
G|------------------------------------|
D|------------------------------------|
A|------------------------------------|
E|--77577757775777577757775777577757--|

G|-----------------------------------|
D|-------------------5-55-7-77-------|
A|-----------------------------------|
E|--7757775777577757----------7-7-7--|



    

Verse
G|-------------------------------------|
D|-------------------------------------| x 2
A|-------------------------------------|
E|--77-577---77-577--33--577---77-577--|

G|------------------------------------|
D|------------------------------------| x 2
A|--22022202220222022202220222022202--|
E|------------------------------------|

Chorus
G|------------------------------------|
D|------------------------------------|
A|--22022202220222022202220222022202--|
E|------------------------------------|

G|-----------------------------------|
D|-------------------5-55-7-77-------|
A|--2202220222022202----------2-2-2--|
E|-----------------------------------|

Verse
G|-------------------------------------|
D|-------------------------------------| x 2
A|--22-022---22-022------022---22-022--|
E|--------------------33---------------|

G|------------------------------------|
D|------------------------------------| x 2
A|--22022202220222022202220222022202--|
E|------------------------------------|

Chorus
G|------------------------------------|
D|------------------------------------| x 2
A|--22022202220222022202220222022202--|
E|------------------------------------|

Outro
G|------------------------------------|
D|------------------------------------| x 2
A|--22022202220222022202220222022202--|
E|------------------------------------|

Last note
G|-----|
D|-----|
A|--2--|
E|-----|

View Albums that This Song Appears On...

  • Tyrannosaurus Hives

    Genre: Pop/Rock Label: Universal Song Duration on Album: 1:34 Album Duration: 29:58

    Release Date: July 20, 2004

    Moods: Rebellious, Exuberant, Cynical/Sarcastic, Energetic, Intense, Irreverent, Playful, Freewheeling, Passionate, Raucous, Rousing, Aggressive, Brash, Confident, Confrontational, Fiery, Hostile, Rambunctious, Rowdy, Volatile

    Styles: Alternative/Indie Rock, Garage Rock Revival, Retro-Rock, Garage Punk, Punk Revival, Alternative Pop/Rock

    Themes: Motivation, Road Trip, Cool & Cocky, Guys Night Out, Hanging Out, Partying, Playful, TGIF

Close panel

Help Rate This Tab by Voting Up or Down

Vote Up Vote Down
Rating: -1 +1

Other Songs Like This

x

Copyright © 2019