Song: Im So Sorry

Band: Imagine Dragons
Composed By: Alex Da Kid, Ben McKee, Dan Reynolds, Josh Mosser, Wayne Sermon

Rating: -0 +0 Views: 137

-------------------------------------------------------------------------------
                             I'm so sorry - Imagine Dragons
-------------------------------------------------------------------------------
Tabbed by: ra.maldonado99

Artist: Imagine Dragons
Album: Smoke + Mirrors
Song: I'm So Sorry 



    

Tuning: Drop D

Intro guitar 1 (repeat 11 times, stops when the drums and bass start playing):
e|-13b14-10-10-------10------------------------------------------------------|
B|-------------13b14---------------------------------------------------------|
G|---------------------------------------------------------------------------|
D|---------------------------------------------------------------------------|
A|---------------------------------------------------------------------------|
D|---------------------------------------------------------------------------|

Intro guitar 2 (starts after 5 times guitar 1's riff, repeat twice)
e|---------------------------------------------------------------------------|
B|----------------------------------------------------------------5----------|
G|-7-7-5----7-7-5---7-7-5---7-7-5---7-7-5---7-7-5---7-7-5---7-7-5------------|
D|-------7--------7-------7-------7-------7-------7-------7------------------|
A|---------------------------------------------------------------------------|
D|---------------------------------------------------------------------------|
Or you can play this as guitar 2:
e|---------------------------------------------------------------------------|
B|---------------------------------------------------------------------------|
G|---------------------------------------------------------------------------|
D|---------------------------------------------------------------------2-----|
A|5-5-3-0--5-5-3-0--5-5-3-0--5-5-3-0--5-5-3-0--5-5-3-0--5-5-3-0--5-5-3-------|
D|---------------------------------------------------------------------------|



    




Verse:
Repeat this riff through the whole verse
e|---------------------------------------------------------------------------|
B|----------------------8-6~-------------------------------------------------|
G|-7-7-5-2------7-7p5h7------------------------------------------------------|
D|---------5-3---------------------------------------------------------------|
A|---------------------------------------------------------------------------|
D|---------------------------------------------------------------------------|


Chorus:
Guitar 1: Repeat this riff through the whole chorus
e|---------------------------------------------------------------------------|
B|---------------------------------------------------------------------------|
G|---------------------------------------------------------------------------|
D|---------------------------------------------------------------------------|
A|-5-5-3-0---5-5-3-0---------------------------------------------------------|
D|---------------------------------------------------------------------------|

Guitar 2: Repeat this riff through the whole chorus
e|-13b14-10-10-------10------------------------------------------------------|
B|-------------13b14---------------------------------------------------------|
G|---------------------------------------------------------------------------|
D|---------------------------------------------------------------------------|
A|---------------------------------------------------------------------------|
D|---------------------------------------------------------------------------|


Bridge chords: Dm C (5x)

Outro:
e|---------------------------------------------------------------------------|
B|---------------------------------------------------------------------------|
G|---------------------------------------------------------------------------|
D|---------------------------------------------------------------------------|
A|-3-5-5-5-5------------3-5-5-5-5-0-5-6-6-6-6-0-3-5-5-5----------------------|
D|-----------7-6-5-0------------------------------------7-6-5-0--------------|

e|---------------------------------------------------------------------------|
B|---------------------------------------------------------------------------|
G|---------------------------------------------------------------------------|
D|---------------------------------------------------------------------------|
A|-3-5-5-5-5-0-5-6-6-6-6-0-3-5-5-5-------------------------------------------|
D|---------------------------------7-6-5-0-----------------------------------|

************************************

| h   hammer-on
| p   pull-off
| ~   vibrato
| b   Bend

************************************

View Just Lyrics...

About time for anyone telling you off for all your deeds
No sign the roaring thunder stopped in cold to read
No time
Get mine and make no excuses waste of precious breath
No time
The sun shines on everyone, everyone love yourself to death

So you gotta fire up, you gotta let go
You'll never be loved till you've made your own
You gotta face up, you gotta get yours
You never know the top till you get too low

A son of a stepfather
A son of a
I'm so sorry
A son of a stepfather
A son of a
I'm so sorry

No lies and no deceiving, man is what he loves
I keep tryin' to conceive that death is from above
No time
Get mine and make no excuses waste of precious breath
No time
The sun shines on everyone, everyone love yourself to death

So you gotta fire up, you gotta let go
You'll never be loved till you've made your own
You gotta face up, you gotta get yours
You never know the top till you get too low

A son of a stepfather
A son of a
I'm so sorry
A son of a stepfather
A son of a
I'm so sorry

Life isn't always what you think it'd be
Turn your head for one second and the tables turn
And I know, I know that I did you wrong
But will you trust me when I say that I'll
Make it up to you somehow, somehow

So you gotta fire up, you gotta let go
You'll never be loved till you've made your own
You gotta face up, you gotta get yours
You never know the top till you get too low

A son of a stepfather
A son of a
I'm so sorry
A son of a stepfather
A son of a
I'm so sorry
I'm so sorry
I'm so sorry
I'm so sorry
A son of

View Albums that This Song Appears On...

  • Smoke + Mirrors

    Genre: Pop/Rock Label: Interscope Song Duration on Album: 3:50 Album Duration: 50:50

    Release Date: February 17, 2015

    Moods: Exuberant, Gutsy, Stylish, Brooding, Cathartic, Confident, Energetic, Exciting, Indulgent, Melancholy, Passionate, Playful, Reflective, Rousing, Searching, Self-Conscious, Slick, Wistful, Wry, Yearning, Epic, Lively, Dramatic, Fun

    Styles: Alternative/Indie Rock, New Wave/Post-Punk Revival

    Themes: Empowering, Heartache, Reflection, Exercise/Workout, Good Times, Guys Night Out, Hanging Out, TGIF

Close panel

Help Rate This Tab by Voting Up or Down

Vote Up Vote Down
Rating: -0 +0

Other Songs Like This

x

Copyright © 2017