Song: Summer

Band: Imagine Dragons
Composed By: Alex Da Kid, Ben McKee, Dan Reynolds, Josh Mosser, Wayne Sermon

Rating: -0 +0 Views: 149

Video for reference: https://www.youtube.com/watch?v=qaMZyWzSMtg

MAIN RIFF:



    

e|---------------------------------------------------------------------------|
B|---------------------------------------------------------------------------|
G|--2-2--7---6-6-6-----6-6--7-2-2-2----2-2--7-6-6-6-----6-6--7-2-2-2---------|
D|-4----7---7---7-7--7----7--4---4-4-4-----7-7---7-7---7---7--4---4-4--------|
A|---------------------------------------------------------------------------|
E|---------------------------------------------------------------------------|
(x8)

FILL:

e|---------------------------------------------------------------------------|
B|---------------------------------------------------------------------------|
G|-2-2-2----2-2-2----2-2-2----2-2-2---2-2-2---2-2-2---2-2--------------------|
D|----4-x-x----4-x-x----4-x-x----4-4-4---4-4-4---4-4-4---4-------------------|
A|---------------------------------------------------------------------------|
E|---------------------------------------------------------------------------|



    

CHORDS:

D Major: X542XX
D5: XX77XX    
A Major: X776XX

STRUMMING:

(D Major)D D X X (D5)D X (A Major) D D X D X X D D X X (D5) D X
 (x1)

(D Major)D D X D X X D D X X (D5)D X (A Major) D D X D X X D D X X (D5) D X
 (x8)   

ADD ON RIFF:

e|---------------------------------------------------------------------------|
B|---------------------------------------------------------------------------|
G|-13-11-9-11-6-9h11-9-6-9-4-------------------------------------------------|
D|---------------------------------------------------------------------------|
A|---------------------------------------------------------------------------|
E|---------------------------------------------------------------------------|

BRIDGE:

(D Major) D D D U D U D U D U U X D D D U D U D U D U 
(D5) D D D U D D U D U D
(A Major) D D D U D D U D U D
 (x2)
(D Major): D (Sustain)

ADD ON RIFF:

e|---------------------------------------------------------------------------|
B|-10s12-12-12-12-12s14-14-14-14-14h15-15-15-15s17-15-14-10s12-12-12-12------|
G|---------------------------------------------------------------------------|
D|---------------------------------------------------------------------------|
A|---------------------------------------------------------------------------|
E|---------------------------------------------------------------------------|

e|---------------------------------------------------------------------------|
B|-12h14-14-14-14-14h15-15-15-15s17------------------------------------------|
G|---------------------------------------------------------------------------|
D|---------------------------------------------------------------------------|
A|---------------------------------------------------------------------------|
E|---------------------------------------------------------------------------|


e|---12p10---12p10---12p10---12p10---12p10---12p10---------------------------|
B|-10------10------10------10------10------10--------------------------------|
G|---------------------------------------------------------------------------|
D|---------------------------------------------------------------------------|
A|---------------------------------------------------------------------------|
E|---------------------------------------------------------------------------|

e|---------------------------------------------------------------------------|
B|---------------------------------------------------------------------------|
G|--2-2--7---6-6-6-----6-6--7-2-2-2----2-2--7-6-6-6-----6-6--7-2-2-2---------|
D|-4----7---7---7-7--7----7--4---4-4-4-----7-7---7-7---7---7--4---4-4--------|
A|---------------------------------------------------------------------------|
E|---------------------------------------------------------------------------|
 (x4)


(D Major) D D D U D U D U D U U X D D D U D U D U D U 
(D5) D D D U D D U D U D
(A Major) D D D U D D U D U D
 (x2)

(D Major) D D D U D U D U D U U X D D D U D U D U D U 
(D5) D D D U D D U D U D
(A Major) D (Sustain)

View Just Lyrics...

If only for a second
Let me have you
Tell me all your secrets
Let me know you

Ooh ooh
Ooh ooh

Paint me all your pictures
Hang them on my wall
Show me all your colors
Show me all

Ooh ooh
Ooh ooh

Open up your eyes
Open up your mind
Fall in love with what you mean to me

Open up your eyes
Open up your mind
Fall in love with what you mean to me

A fire burns into you purifying gold
But what I saw was opulence
And that's not for me

Ooh ooh (That's not for me)
Ooh ooh (That's not for me)

Only in summertime (Only in summertime)
Only in summertime (Only in summertime)
Things will change with time (Things will change with time)
But only in summertime

Open up your eyes
Open up your mind
Fall in love with what you mean to me

Open up your eyes
Open up your mind
Fall in love with what you mean to me

Only in summertime (Only in summertime)
Only in summertime (Only in summertime)
Things will change with time (Things will change with time)
But only in summertime

View Albums that This Song Appears On...

  • Smoke + Mirrors

    Genre: Pop/Rock Label: Universal Music Group Song Duration on Album: 3:38 Album Duration: 50:50

    Release Date: February 17, 2015

    Moods: Exuberant, Gutsy, Stylish, Brooding, Cathartic, Confident, Energetic, Exciting, Indulgent, Melancholy, Passionate, Playful, Reflective, Rousing, Searching, Self-Conscious, Slick, Wistful, Wry, Yearning, Epic, Lively, Dramatic, Fun

    Styles: Alternative/Indie Rock, New Wave/Post-Punk Revival

    Themes: Empowering, Heartache, Reflection, Exercise/Workout, Good Times, Guys Night Out, Hanging Out, TGIF

  • Smoke + Mirrors [Commentary]

    Label: Universal Song Duration on Album: 1:44

    Styles: Alternative/Indie Rock

Close panel

Help Rate This Tab by Voting Up or Down

Vote Up Vote Down
Rating: -0 +0

Other Songs Like This

x

Copyright © 2017