Song: Dig Bass

Band: Incubus

Rating: -1 +1 Views: 70

Incubus - Dig
Bass Tab
By: Cesar Fdo Ayala M.

I think it's a good tab. Enjoy it!!
Viva la musica, viva Colombia!!!!!!!!



    


E - F# - C# - B


INTRO/VERSE 



    

We all have something...
G|---------------|------------------------------|
D|---------------|--4h6--4h6-------------2h4----|  x4
A|---------------|-------------4-4-4------------|
E|--0-2-0-0-2-4--|------------------------------|



CHORUS

another, dig me up from under what... 
G|---------------------------------------|
D|-2--1-2-1------------------------------|
A|----------2--2-2-2---------------------|
E|-------------------2--2-2-2-0--0-0-0-0-|

G|---------------------------------------|
D|-2--1-2-1------------------------------|
A|----------2--2-2-2---------------------|
E|-------------------0--0-0-0-2--2-2-2-2-|

Sing this song...
G|------------------------------------------|
D|-2--1-2-1------------4--2h4-2-------------|
A|----------2--2-2-2------------4--2-0------|
E|-------------------------------------2-0--|

G|------------------------------------|
D|-2--1-2-1---------------------------|
A|----------2--2-2-2----4-------------|
E|-------------------0-----2-2-2-2----|



VERSE

We all have a sickness...
G|---------------|------------------------------|
D|---------------|--4h6--4h6-------------2h4----| x8
A|---------------|-------------4-4-4------------|
E|--0-2-0-0-2-4--|------------------------------|



CHORUS

another, dig me up from under what... 
G|---------------------------------------|
D|-2--1-2-1------------------------------|
A|----------2--2-2-2---------------------|
E|-------------------2--2-2-2-0--0-0-0-0-|

G|---------------------------------------|
D|-2--1-2-1------------------------------|
A|----------2--2-2-2---------------------|
E|-------------------0--0-0-0-2--2-2-2-2-|

Sing this song...
G|------------------------------------------|
D|-2--1-2-1------------4--2h4-2-------------|
A|----------2--2-2-2------------4--2-0------|
E|-------------------------------------2-0--|

G|------------------------------------|
D|-2--1-2-1---------------------------|
A|----------2--2-2-2----4-------------|
E|-------------------0-----2-2-2-2----|

Oh, each other...
G|-------------------------------------|
D|---2--1-2-1--------------------------|
A|------------2--2-2-2----4------------|
E|---------------------0-----2-2-2-2---|



BRIDGE

G|------------------------------------------------------------------|
D|------------------------------------------------------------------|
A|-666666666666666--------------------------------------------------|
E|-----------------444444444444444-7777777777777777-444444444444444-|


G|-----------------------------------------------|
D|--------------------9-9h11--9h11-9h11-9--------|
A|---------------9-11---------------------11-9~--|
E|-7777777--9-11---------------------------------|



Ohhuuhh
G|-----|--------|------|-----------------|
D|-----|-6-4h6~-|---4~-|-----------------|
A|--7~-|--------|------|---4---//7-77~---|
E|-----|--------|-2----|-2---------------|


G|--------|------|------4-66-44----------|
D|-6-4h6~-|---4~-|--4-6---------66-44----|
A|--------|------|-----------------------|
E|--------|-2----|-----------------------|


Ohhuuhh
G|---------------------------------------|
D|----------6~-66666--4~-44444-----------|
A|-7~-77777--------------------4~-44444--|
E|---------------------------------------|


G|-----------------------------------4-66-44--------|
D|----------6~-66666--4~-44444---4-6---------66-44--|
A|-7~-77777-----------------------------------------|
E|--------------------------------------------------|



CHORUS

another, dig me up from under what... 
G|---------------------------------------|
D|-2--1-2-1------------------------------|
A|----------2--2-2-2---------------------|
E|-------------------2--2-2-2-0--0-0-0-0-|

G|---------------------------------------|
D|-2--1-2-1------------------------------|
A|----------2--2-2-2---------------------|
E|-------------------0--0-0-0-2--2-2-2-2-|

Sing this song...
G|------------------------------------------|
D|-2--1-2-1------------4--2h4-2-------------|
A|----------2--2-2-2------------4--2-0------|
E|-------------------------------------2-0--|

Oh, each other...
G|-------------------------------------| -
D|---2--1-2-1--------------------------|  \-> X3
A|------------2--2-2-2----4------------|  /
E|---------------------0-----2-2-2-2---| -



END

G|-----------|
D|-----------| 
A|------2~---|
E|--0-0------|

Close panel

Help Rate This Tab by Voting Up or Down

Vote Up Vote Down
Rating: -1 +1

Other Songs Like This

x

Copyright © 2017