Song: Wish You Were Here Bass

Band: Incubus

Rating: -1 +1 Views: 68

Song: Wish You Were Here
Artist: Incubus
Album: Morning View

Tuning: E, A, D, G
Note: there are no ones in this song---1010= fret ten and fret ten consecutively--
same for 11, 12, 13, 14 etc.
no ninety-nine's either----99x99 equals 9 then 9 then 9 then 9
/ = slide up
\ = slide down



    

Intro/Chorus-listen to song for rhythm
G----------------------------------------------
D----------------------------------------------
A----------------------------------------------
E--5-5-0-0-0-7-7-/10-0-0---5-5-0-0-0-2-2-/5-0--         2x

1st verse- listen to song for rhythm
G----------------------------------------------
D---------------------------------------9h11-9-
A---------------------------------5---9--------
E--7---5---2--/10-----7---5---2----------------         2x

G----------------------------------------------
D--------------------------------------99x99---
A---------------------------------5---9--------
E--7---5---2--/10-----7---5---2----------------     played right before chorus



    

2nd Verse-listen to song for rhythm
G----------------------------------------------]
D---------------------------------------9h11-9-]
A---------------------------------5---9--------]
E--7---5---2--/10-----7---5---2----------------]****** see note below

G----------------------------------------------
D----------------------------------------------
A----------------------------------------------
E--7-7--5-5---2-2--/10--1010-1010-/------------

G----------------------------------------------
D-------------------------9h11-9---------------
A-------------------5---9----------------------
E--7-7--5-5---2-2------------------------------

G----------------------------------------------
D------------------------99x99-----------------
A-------------------5---9----------------------
E--7-7--5-5---2-2------------------------------


Interlude-listen for rhythm
G----------------------------------------------
D----------------------------------------------
A----------------------------------------------
E-2-2-22-2-555-3-3-3-33------------------------     3x

Then fourth time
G----------------------------------------------
D----------------------------------------------
A----------------------------------------------
E-2-2-22-2-555-3----/141414-\------------------

End-
G----------------------------------------------
D----------------------------------------------
A----------------------------------------------
E--5 let ring----------------------------------


Order:
Intro 2x
Verse 1 3x
Chorus 2x
Verse 2 ****= play bracketed part once and then play unbracketed part 2x
Chorus 2x
Interlude
Chorus 2x
End

Close panel

Help Rate This Tab by Voting Up or Down

Vote Up Vote Down
Rating: -1 +1

Other Songs Like This

x

Copyright © 2018