Song: Are You In Bass

Band: Incubus

Rating: -1 +1 Views: 63

Song: Are You In?
Band: Incubus
Album: Morning View
Tabbed by: Sin Ogaris (jcdenton83@hotmail.com)



    


Ok, this is my first attempt at tabbing so if it's off that's why.
I figured I'd pick a relatively easy song to start with and since
this song is pretty easy, but sounds awesome, I picked it. It's got
a mellow, laid-back, sort of feel to it that just makes it a lot of
fun to play. Anyway, on with the tab.




    

Key
 / = slide up
 \ = slide down
 h = hammer on
 p = pull off


Intro
G|--14/16--------|--14/16---------|--14/16--------|--14/16-----------|
D|--14/16--------|--14/16---------|--14/16--------|--14/16-----------|
A|---------------|---------14-----|---------------|---------14-------|
E|---------------|-----------13\--|---------------|-------------14\--|

		    (wait a few bars then play this)
G|--14/16----------|--14h16h14--------|
D|--14/16----------|----------16------|
A|-----------------|------------------|
E|-----------------|------------------|


Verses
G|-------------------------|-----------------------|
D|-------------------------|-----------------------|
A|-------------09-911-1214-|-------------2-2-02----|
E|-10-x75-702--------------|-10-x75-702--------20--|


Chorus
G|----------------------|----------------------|
D|----------------------|----------------------|
A|----------------------|----------------------|
E|-10101010777722222222-|-10101010777722225577-|

(this is an alternative method to the one above,
it involves less neck movement)
G|-------------------|------------------|
D|-0000--------------|-0000-------------|
A|-----0000----------|-----0000----0022-|
E|---------222222222-|---------2222-----|


Chorus Variation 1 (leads into interlude)
G|----------------------|-----------------------|
D|----------------------|-----------------------|
A|----------------------|-----------------------|
E|-10101010777722222222-|-10101010777722220202/-|


Chorus Variation 2 (end of song, just an extra note at the end)
G|----------------------|-----------------------|
D|----------------------|-----------------------|
A|----------------------|-----------------------|
E|-10101010777722222222-|-101010107777222255772-|


Interlude		(play this the last time)
G|-------------------|-------------------------14h16h14---|
D|---------4---5--4--|---------5---7-75\---------------16-|
A|--------5---5----5-|--------7---7-----75\---------------|
E|-2--0--5---5---5---|-2--0--7---7---------52-------------|

You'll be able to work out the number of times to play each section
by playing along with the song. Well, that's it, if you want to make
any corrections just send me an e-mail.

Close panel

Help Rate This Tab by Voting Up or Down

Vote Up Vote Down
Rating: -1 +1

Other Songs Like This

x

Copyright © 2017