Song: Morning

Band: Iron And Wine

Rating: -0 +0 Views: 99



    

																				Tabbed by: Justin Ayers
Email: icarus4108@sbcglobal.net

This is a tab for the excellent Iron & Wine b-side Morning. The song is in the key of A,
if you want to improvise use the A Ionian scale and the F# major pentatonic scale. This
my first tab so if you have a problem with it email me. The progression below fits the 
but the bass of the song could easily go A, E, F#, A, G#. I am 99% sure this is correct.

Progression: A, Bm7, Dsus2/E, A, Dsus2/E




    

Arpeggio (played throughout):

|--5-----------5-----5-----5-------2-----2-----2-----2-----2---------|
|----5-----------5-----5-----5-------3-----3-----3-----3-----3-------|
|------6---6-------6-----6-----6~------------2-----2-----2-----2-----|
|--------7---7-7-----7-----7-----------4-4-----4-----4-----4-----4-4-|
|--7-------------------------------2---------------------------------|
|--------------------------------------------------------------------|


|--0-----0-----0-----0-----0-------5-----5-----5---0-----0-----0---|
|----3-----3-----3-----3-----3-------5-----5-----5---3-----3-----3-|
|------2-----2-----2-----2-----2~------6-----6---------2-----2-----|
|--2-----2-----2-----2-----2-------------7---------2-----2---------|
|----------------------------------7-----------7-------------------|
|------------------------------------------------------------------|

bass and slide coming soon. I think the bass notes are separate, but i'm not sure.

Close panel

Help Rate This Tab by Voting Up or Down

Vote Up Vote Down
Rating: -0 +0

Other Songs Like This

x

Copyright © 2017