Song: Iron Maiden

Band: Iron Maiden

Rating: -1 +1 Views: 194

Artist: Iron Maiden
Album: Iron Maiden
Song: Iron Maiden




    

Intro
Gtr 1
E-------------------|
B---------5---------|
G-2-0H2P0---5-------|
D-------------5H7P5-|
A-------------------|
E-------------------|

Gtr 2
E-----------------------|
B-----------5-----------|
G-5-5-4h5p4---5-4-------|
D-----------------------|
A-----------------------|
E-----------------5-3-0-|

Verse
E-----------------------------|
B-----------------------------|
G-----------------------------|
D-7-7-7-7-7-7-7-5-5-5-5-5-5-5-|
A-7-7-7-7-7-7-7-5-5-5-5-5-5-5-|
E-5-5-5-5-5-5-5-3-3-3-3-3-3-3-|



    

Intro
Gtr 1
E-------------------|
B---------5---------|
G-2-0H2P0---5-------|
D-------------5H7P5-|
A-------------------|
E-------------------|

Gtr 2
E-----------------------|
B-----------5-----------|
G-5-5-4h5p4---5-4-------|
D-----------------------|
A-----------------------|
E-----------------5-3-0-|

Chorus
E----------------------------|
B----------------------------|
G-5-X-5-------7-X-7----------|
D-5-X-5-5-X-5-7-X-7-14-15-17-|
A-3-X-3-5-X-5-5-X-5-12-14-15-|
E-------3-X-3----------------|

Intro
Gtr 1
E-------------------|
B---------5---------|
G-2-0H2P0---5-------|
D-------------5H7P5-|
A-------------------|
E-------------------|

Gtr 2
E-----------------------|
B-----------5-----------|
G-5-5-4h5p4---5-4-------|
D-----------------------|
A-----------------------|
E-----------------5-3-0-|

Verse
E-----------------------------|
B-----------------------------|
G-----------------------------|
D-7-7-7-7-7-7-7-5-5-5-5-5-5-5-|
A-7-7-7-7-7-7-7-5-5-5-5-5-5-5-|
E-5-5-5-5-5-5-5-3-3-3-3-3-3-3-|

Chorus
E----------------------------|
B----------------------------|
G-5-X-5-------7-X-7----------|
D-5-X-5-5-X-5-7-X-7-14-15-17-|
A-3-X-3-5-X-5-5-X-5-12-14-15-|
E-------3-X-3----------------|

Solo
E-------------------------|
B-------------------------|
G-------------------0-2-4-|
D-------0-2-3-0-2-3-------|
A-0-2-3-------------------|
E-------------------------|

E-------------------------------------|
B-17-15-13-12-13-------------12-13-15-|
G----------------14----12-14----------|
D-------------------15----------------|
A-------------------------------------|
E-------------------------------------|

E-------------|
B-------------|
G-7-7-7-7-7-5-|
D-7-7-7-7-7-5-|
A-5-5-5-5-5-3-|
E-------------|

Intro
Gtr 1
E-------------------|
B---------5---------|
G-2-0H2P0---5-------|
D-------------5H7P5-|
A-------------------|
E-------------------|

Gtr 2
E-----------------------|
B-----------5-----------|
G-5-5-4h5p4---5-4-------|
D-----------------------|
A-----------------------|
E-----------------5-3-0-|

Verse
E-----------------------------|
B-----------------------------|
G-----------------------------|
D-7-7-7-7-7-7-7-5-5-5-5-5-5-5-|
A-7-7-7-7-7-7-7-5-5-5-5-5-5-5-|
E-5-5-5-5-5-5-5-3-3-3-3-3-3-3-|

Chorus
E----------------------------|
B----------------------------|
G-5-X-5-------7-X-7----------|
D-5-X-5-5-X-5-7-X-7-14-15-17-|
A-3-X-3-5-X-5-5-X-5-12-14-15-|
E-------3-X-3----------------|

Ending
E-----------|
B-----------|
G-5-5-5-5-5-|
D-5-5-5-5-5-|
A-3-3-3-3-3-|
E-----------|

                                             Enjoy!!!!!

Close panel

Help Rate This Tab by Voting Up or Down

Vote Up Vote Down
Rating: -1 +1

Other Songs Like This

x

Copyright © 2018