Song: Run To The Hills Bass

Band: Iron Maiden

Rating: -1 +1 Views: 173

Run to the Hills (3:54)
Iron Maiden
The Number of the Beast - 1982

Tabbed - IbanezBassman (manic_subsidal_09(at)hotmail.com)
Written - Steve Harris
Bass - Steve Harris



    


Intro (0:00)

G|--9-9-7----7-7-79----5-5-57------------|
D|-7------------------------------5-5-57-|
A|---------------------------------------|
E|---------------------------------------|



    

G|--9-9-7----7-7-79----5-5-57------------|
D|-7------------------------------5-5-57-|
A|---------------------------------------|
E|---------------------------------------|

G|--9-9-7----7-7-79----5-5-57------------|
D|-7------------------------------5-5-57-|
A|---------------------------------------|
E|---------------------------------------|

G|--9-9-7----7-7-79----5-5-57------------|
D|-7------------------------------5-5-57-|
A|---------------------------------------|
E|---------------------------------------|

G|--9-9-7----7-7-79----5-5-57------------|
D|-7------------------------------5-5-57-|
A|---------------------------------------|
E|---------------------------------------|

G|--9-9-7----7-7-79----5-5-57--(5)-----|
D|-7-----------------------------5-5---|
A|-----------------------------------5-|
E|-------------------------------------|

Gallop (0:49)

G|-------------------|-----------------|
D|-------------------|-----------------|
A|-5-555-555-555-555-|-555-555-555-555-|
E|-------------------|-----------------|

Verse (0:52)

G|-------------------|-----------------|
D|-------------------|-----------------|
A|-5-555-555-555-555-|-555-555-555-555-|
E|-------------------|-----------------|

G|-------------------|-----------------|
D|-------------------|-----------------|
A|-3-333-333-333-333-|-2-2-3-3-2-2-3-3-|
E|-------------------|-----------------|

G|-------------------|-----------------|
D|-------------------|-----------------|
A|-5-555-555-555-555-|-555-555-555-555-|
E|-------------------|-----------------|

G|-------------------|-----------------|
D|-------------------|-----------------|
A|-3-333-333-333-333-|-2-2-3-3-2-2-3-3-|
E|-------------------|-----------------|

Bridge (1:03)

G|-------------------|-------------------|
D|-------------------|-------------------|
A|-0-000-000-000-000-|---333-333-333-333-|
E|-------------------|-3-----------------|

G|-------------------|-------------------|
D|-------------------|-------------------|
A|-------------------|-5-555-555-555-555-|
E|-0-111-111-111-111-|-------------------|

G|-------------------|
D|-------------------|
A|-5-555-555-555-555-|
E|-------------------|

Chorus (1:10)

G|-------------------|-----------------|
D|-------------------|-----------------|
A|-------------------|-----------------|
E|-3-333-333-333-333-|-333-333-333-333-|

G|-------------------|-----------------|
D|-------------------|-----------------|
A|-------------------|-----------------|
E|-1-111-111-111-111-|-111-111-111-111-|

G|-------------------|-----------------|
D|-------------------|-----------------|
A|-------------------|-----------------|
E|-3-333-333-333-333-|-333-333-333-333-|

G|-------------------|------------|
D|-------------------|------------|
A|-------------------|------------|
E|-3-333-333-333-333-|-3--0--1--2-|

G|-------------------|-----------------|
D|-------------------|-----------------|
A|-------------------|-----------------|
E|-3-333-333-333-333-|-333-333-333-333-|

G|-------------------|-----------------|
D|-------------------|-----------------|
A|-------------------|-----------------|
E|-1-111-111-111-111-|-111-111-111-111-|

G|-------------------|-----------------|
D|-------------------|-----------------|
A|-------------------|-----------------|
E|-3-333-333-333-333-|-333-333-333-333-|

G|-------------------|-----------------|
D|-------------------|-----------------|
A|-------------------|-----------------|
E|-3-333-333-333-333-|-333-333-333-333-|

Verse (1:32)

G|-------------------|-----------------|
D|-------------------|-----------------|
A|-5-555-555-555-555-|-555-555-555-555-|
E|-------------------|-----------------|

G|-------------------|-----------------|
D|-------------------|-----------------|
A|-3-333-333-333-333-|-2-2-3-3-2-2-3-3-|
E|-------------------|-----------------|

G|-------------------|-----------------|
D|-------------------|-----------------|
A|-5-555-555-555-555-|-555-555-555-555-|
E|-------------------|-----------------|

G|-------------------|-----------------|
D|-------------------|-----------------|
A|-3-333-333-333-333-|-2-2-3-3-2-2-3-3-|
E|-------------------|-----------------|

Bridge (1:43)

G|-------------------|-------------------|
D|-------------------|-------------------|
A|-0-000-000-000-000-|---333-333-333-333-|
E|-------------------|-3-----------------|

G|-------------------|-------------------|
D|-------------------|-------------------|
A|-------------------|-5-555-555-555-555-|
E|-0-111-111-111-111-|-------------------|

G|-------------------|
D|-------------------|
A|-5-555-555-555-555-|
E|-------------------|

Chorus (1:50)

G|-------------------|-----------------|
D|-------------------|-----------------|
A|-------------------|-----------------|
E|-3-333-333-333-333-|-333-333-333-333-|

G|-------------------|-----------------|
D|-------------------|-----------------|
A|-------------------|-----------------|
E|-1-111-111-111-111-|-111-111-111-111-|

G|-------------------|-----------------|
D|-------------------|-----------------|
A|-------------------|-----------------|
E|-3-333-333-333-333-|-333-333-333-333-|

G|-------------------|------------|
D|-------------------|------------|
A|-------------------|------------|
E|-3-333-333-333-333-|-3--0--1--2-|

G|-------------------|-----------------|
D|-------------------|-----------------|
A|-------------------|-----------------|
E|-3-333-333-333-333-|-333-333-333-333-|

G|-------------------|-----------------|
D|-------------------|-----------------|
A|-------------------|-----------------|
E|-1-111-111-111-111-|-111-111-111-111-|

G|-------------------|-----------------|
D|-------------------|-----------------|
A|-------------------|-----------------|
E|-3-333-333-333-333-|-333-333-333-333-|

G|-------------------|-----------------|
D|-------------------|-----------------|
A|-------------------|-----------------|
E|-3-333-333-333-333-|-333-333-333-333-|

Solo (2:12)

G|------------------|-0-000-000-000-000-|
D|-2-222-222-222-24-|-------------------|
A|------------------|-------------------|
E|------------------|-------------------|

G|-------------------|-----------------|
D|-------------------|-----------------|
A|-------------------|-3-2-3-2-3-2-----|
E|-3-333-333-333-333-|-------------3-2-|


"The Rise and Fall" (2:34)

G|-----------------|-----------------|-5-55557-55557-5-|-7-77779-77779-7-|
D|-7-77779-77779-7-|-5-55557-55557-5-|-----------------|-----------------|
A|-----------------|-----------------|-----------------|-----------------|
E|-----------------|-----------------|-----------------|-----------------|

G|-----------------|-----------------|-5-55557-55557-5-|-7-77779-77779-7-|
D|-7-77779-77779-7-|-5-55557-55557-5-|-----------------|-----------------|
A|-----------------|-----------------|-----------------|-----------------|
E|-----------------|-----------------|-----------------|-----------------|

G|-----------------|-----------------|-5-55557-55557-5-|-7-77779-77779-7-|
D|-7-77779-77779-7-|-5-55557-55557-5-|-----------------|-----------------|
A|-----------------|-----------------|-----------------|-----------------|
E|-----------------|-----------------|-----------------|-----------------|

G|-9-999911-999912-9-|-11-1111111112-1111111112-11-|
D|-------------------|-----------------------------|
A|-------------------|-----------------------------|
E|-------------------|-----------------------------|

G|12-1212121214-1212121214-12-|-16161616--------16161616----| 
D|----------------------------|---------14141414--------14\-|
A|----------------------------|-----------------------------|
E|----------------------------|-----------------------------|

Chorus (2:55)

G|-------------------|-----------------|
D|-------------------|-----------------|
A|-------------------|-----------------|
E|-3-333-333-333-333-|-333-333-333-333-|

G|-------------------|-----------------|
D|-------------------|-----------------|
A|-------------------|-----------------|
E|-1-111-111-111-111-|-111-111-111-111-|

G|-------------------|-----------------|
D|-------------------|-----------------|
A|-------------------|-----------------|
E|-3-333-333-333-333-|-333-333-333-333-|

G|-------------------|------------|
D|-------------------|------------|
A|-------------------|------------|
E|-3-333-333-333-333-|-3--0--1--2-|

End (3:29)

G|-------------------|-----------------|
D|-------------------|-----------------|
A|-------------------|-----------------|
E|-3-333-333-333-333-|-333-333-333-333-|

G|-------------------|-----------------|
D|-------------------|-----------------|
A|-------------------|-----------------|
E|-1-111-111-111-111-|-111-111-111-111-|

G|----------------|---------------------|
D|----------------|------------55555555-|
A|-3----------2---|---------------------|
E|----------------|-3-------------------|

G|----------------|---------------------|---|
D|--555553-53-53--|---------------------|---|
A|--------5--5--5-|-4-3-2-1-------------|---|
E|----------------|---------012-3-3-3-3-|-3-|


| /  slide up
| \  slide down
| h  hammer-on
| p  pull-off
| ~  vibrato
| +  harmonic
| x  Mute note

Close panel

Help Rate This Tab by Voting Up or Down

Vote Up Vote Down
Rating: -1 +1

Other Songs Like This

x

Copyright © 2018