Song: Iron Maiden

Band: Iron Maiden

Rating: -1 +1 Views: 315

Song:  Iron Maiden
Band:  Iron Maiden
Album: Iron Maiden

Riff A
-------------------------|
--------------5----------|
--2-2--0-2-0----5--------|
------------------5-7-5--|
-------------------------|
-------------------------|



    

---------------------------|
--------------5------------|
--5-5--4-5-4----5-4--------|
---------------------------|
---------------------------|
--------------------5-3-0--|

Verse
----------------------------------|
----------------------------------|
----------------------------------|
--7-7-7-7-7-7-7-7--5-5-5-5-5-5-5--|
--7-7-7-7-7-7-7-7--5-5-5-5-5-5-5--|
--5-5-5-5-5-5-5-5--3-3-3-3-3-3-3--|

Riff A
-------------------------|
--------------5----------|
--2-2--0-2-0----5--------|
------------------5-7-5--|
-------------------------|
-------------------------|



    

---------------------------|
--------------5------------|
--5-5--4-5-4----5-4--------|
---------------------------|
---------------------------|
--------------------5-3-0--|

Chorus
-----------------------------------|
-----------------------------------|
--5-x-5---------7-x-7--------------|
--5-x-5--5-x-5--7-x-7--14--15--17--|
--3-x-3--5-x-5--5-x-5--12--14--15--|
---------3-x-3---------------------|

Riff A
-------------------------|
--------------5----------|
--2-2--0-2-0----5--------|
------------------5-7-5--|
-------------------------|
-------------------------|

---------------------------|
--------------5------------|
--5-5--4-5-4----5-4--------|
---------------------------|
---------------------------|
--------------------5-3-0--|

Verse
----------------------------------|
----------------------------------|
----------------------------------|
--7-7-7-7-7-7-7-7--5-5-5-5-5-5-5--|
--7-7-7-7-7-7-7-7--5-5-5-5-5-5-5--|
--5-5-5-5-5-5-5-5--3-3-3-3-3-3-3--|

Chorus
-----------------------------------|
-----------------------------------|
--5-x-5---------7-x-7--------------|
--5-x-5--5-x-5--7-x-7--14--15--17--|
--3-x-3--5-x-5--5-x-5--12--14--15--|
---------3-x-3---------------------|

Solo
---------------------------|
---------------------------|
--------------------0-2-4--|
--------0-2-3-0-2-3--------|
--0-2-3--------------------|
---------------------------|

---------------------------------------|
--17-15-13-12-13-------------12-13-15--|
-----------------14----12-14-----------|
--------------------15-----------------|
---------------------------------------|
---------------------------------------|

Riff A
-------------------------|
--------------5----------|
--2-2--0-2-0----5--------|
------------------5-7-5--|
-------------------------|
-------------------------|

---------------------------|
--------------5------------|
--5-5--4-5-4----5-4--------|
---------------------------|
---------------------------|
--------------------5-3-0--|

Verse
----------------------------------|
----------------------------------|
----------------------------------|
--7-7-7-7-7-7-7-7--5-5-5-5-5-5-5--|
--7-7-7-7-7-7-7-7--5-5-5-5-5-5-5--|
--5-5-5-5-5-5-5-5--3-3-3-3-3-3-3--|

Chorus
-----------------------------------|
-----------------------------------|
--5-x-5---------7-x-7--------------|
--5-x-5--5-x-5--7-x-7--14--15--17--|
--3-x-3--5-x-5--5-x-5--12--14--15--|
---------3-x-3---------------------|

Close panel

Help Rate This Tab by Voting Up or Down

Vote Up Vote Down
Rating: -1 +1

Other Songs Like This

x

Copyright © 2019