Song: The Dreams Of Children Bass

Band: Jam
Composed By: Paul Weller

Rating: -1 +1 Views: 118



    

																				##-----------------------------PLEASE NOTE------------------------------##
The owner of this website has not reviewed the contents of this
file. If you feel that the content of this file may be violating
copyright law, you may not use the information displayed here in any way.
##----------------------------------------------------------------------##


 THE DREAMS OF CHILDREN



    

 ARTIST: THE JAM
 ALBUM: SNAP
 BASSIST: BRUCE FOXTON
 TAB BY chris_70653223@hotmail.com


                                   (A)
G|---------9-9--------7----9-9------|---------9-9--------7----9-9------|
D|---------------9------------------|---------------9------------------|
A|----7-7---------------------------|----7-7---------------------------|
E|----------------------------------|----------------------------------|


                                   (B)
G|----------------------------------|----------------------------------|
D|-----------------------2--1--2--1-|-----------------------2--1--2--1-|
A|-2--2--2--4--2--4--2--------------|-2--2--2--4--2--4--2--------------|
E|----------------------------------|----------------------------------|


                                   (C)
G|----------------------------------|----------------------------------|
D|-----------------------2--1--2--1-|-----------------------2--1--2--1-|
A|-2--2--2--4--2--4--2--------------|-2--2--2--4--2--4--2--------------|
E|----------------------------------|----------------------------------|


                                   (D)
G|----------------------------------|----------------------------------|
D|-----------------2--2--2----------|-----------------2--2--2----------|
A|-2--2--2--4--2------------4-------|-2--2--2--4--2--------------------|
E|----------------------------------|----------------------------------|


                                   (E)
G|----------------------------------|----------------------------------|
D|---7---7---7---7---7---7---7---7--|---9---9---9---9---9---9---9---9--|
A|----------------------------------|----------------------------------|
E|-5---5---5---5---5---5---5---5----|-7---7---7---7---7---7---7---7----|


                                   (F)
G|---------9-9--------7----9-9------|---------9-9--------7----9-9------|
D|---------------9------------------|---------------9------------------|
A|----7-7---------------------------|----7-7---------------------------|
E|----------------------------------|----------------------------------|

                                   (G)
G|----------------------------------|----------------------------------|
D|-----------------------2--1--2--1-|-----------------------2--1--2--1-|
A|-2--2--2--4--2--4--2--------------|-2--2--2--4--2--4--2--------------|
E|----------------------------------|----------------------------------|

                                   (H)
G|----------------------------------|----------------------------------|
D|-----------------------2--1--2--1-|-----------------------2--1--2--1-|
A|-2--2--2--4--2--4--2--------------|-2--2--2--4--2--4--2--------------|
E|----------------------------------|----------------------------------|

                                   (I)
G|----------------------------------|----------------------------------|
D|-----------------2--2--2----------|-----------------2--2--2----------|
A|-2--2--2--4--2------------4-------|-2--2--2--4--2--------------------|
E|----------------------------------|----------------------------------|

                                   (J)
G|----------------------------------|
D|---7---7---7---7---7---7---7---7--|
A|----------------------------------|
E|-5---5---5---5---5---5---5---5----|


                                   (K)
G|----------------------------------|----------------------------------|
D|---------------4--4---------------|---------------8--8---------------|
A|--------4--4-----------4--4-------|--------8--8----------8--8--------|
E|-2--2-----------------------------|-6--6-----------------------------|


                                   (L)
G|----------------------------------|----------------------------------|
D|---------------4--4---------------|---------------8--8---------------|
A|--------4--4-----------4--4-------|--------8--8----------8S\---------|
E|-2--2-----------------------------|-6--6-----------------------------|


                                   (M)
G|----------------------------------|----------------------------------|
D|---------------4--4---------------|---------------8--8---------------|
A|--------4--4-----------4--4-------|--------8--8----------8--8--------|
E|-2--2-----------------------------|-6--6-----------------------------|


                                   (N)
G|----------------------------------|----------------------------------|
D|---------------4--4---------------|---------------8--8---------------|
A|--------4--4-----------4--4-------|--------8--8----------8---S\------|
E|-2--2-----------------------------|-6--6-----------------------------|


                                   (0)
G|----------------------------------|----------------------------------|
D|---------------4--4---------------|---------------8--8---------------|
A|--------4--4-----------4--4-------|--------8--8----------8--8--------|
E|-2--2-----------------------------|-6--6-----------------------------|


                                   (P)
G|----------------------------------|----------------------------------|
D|---------------4--4---------------|---------------8--8---------------|
A|--------4--4-----------4--4-------|--------8--8----------8S\---------|
E|-2--2-----------------------------|-6--6-----------------------------|


                                   (Q)
G|----------------------------------|----------------------------------|
D|---7---7---7---7---7---7---7---7--|---9---9---9---9---9---9---9---9--|
A|----------------------------------|----------------------------------|
E|-5---5---5---5---5---5---5---5----|-7---7---7---7---7---7---7---7----|

                                   (R)
G|---------9-9--------7----9-9------|---------9-9--------7----9-9------|
D|---------------9------------------|---------------9------------------|
A|----7-7---------------------------|----7-7---------------------------|
E|----------------------------------|----------------------------------|


                                   (S)
G|----------------------------------|------------9------------9--------|
D|----------------------------------|--------9------------9------------|
A|-------------7-----------7--------|----7------------7----------------|
E|-----0---7------7----7-------7----|----------------------------------|


                                   (T)
G|----------------------------------|------------9------------9--------|
D|----------------------------------|--------9------------9------------|
A|-------------7-----------7--------|----7------------7----------------|
E|-----0---7------7----7-------7----|----------------------------------|


                                   (U)
G|----------------------------------|------------9------------9--------|
D|----------------------------------|--------9------------9------------|
A|-------------7-----------7--------|----7------------7----------------|
E|-----0---7------7----7-------7----|----------------------------------|


                                   (V)
G|----------------------------------|------------9------------9--------|
D|----------------------------------|--------9------------9------------|
A|-------------7-----------7--------|----7------------7----------------|
E|-----0---7------7----7-------7----|----------------------------------|


                                   (W)
G|----------------------------------|----------------------------------|
D|---7---7---7---7---7---7---7---7--|---9---9---9---9---9---9---9---9--|
A|----------------------------------|----------------------------------|
E|-5---5---5---5---5---5---5---5----|-7---7---7---7---7---7---7---7----|


                                   (X)
G|---------9-9--------7----9-9------|---------9-9--------7----9-9------|
D|---------------9------------------|---------------9------------------|
A|----7-7---------------------------|----7-7---------------------------|
E|----------------------------------|----------------------------------|


                                   (Y)
G|----------------------------------|----------------------------------|
D|-----------------------2--1--2--1-|-----------------------2--1--2--1-|
A|-2--2--2--4--2--4--2--------------|-2--2--2--4--2--4--2--------------|
E|----------------------------------|----------------------------------|


                                   (Z)
G|----------------------------------|----------------------------------|
D|-----------------------2--1--2--1-|-----------------------2--1--2--1-|
A|-2--2--2--4--2--4--2--------------|-2--2--2--4--2--4--2--------------|
E|----------------------------------|----------------------------------|


                                   (AA)
G|----------------------------------|----------------------------------|
D|-----------------2--2--2----------|-----------------2--2--2----------|
A|-2--2--2--4--2------------4-------|-2--2--2--4--2--------------------|
E|----------------------------------|----------------------------------|


                                   (AB)
G|----------------------------------|----------------------------------|
D|---7---7---7---7---7---7---7---7--|---9---9---9---9---9---9---9---9--|
A|----------------------------------|----------------------------------|
E|-5---5---5---5---5---5---5---5----|-7---7---7---7---7---7---7---7----|


                                   (AC)
G|----------------------------------|----------------------------------|
D|---------------4--4---------------|---------------8--8---------------|
A|--------4--4-----------4--4-------|--------8--8----------8--8--------|
E|-2--2-----------------------------|-6--6-----------------------------|


                                   (AD)
G|----------------------------------|----------------------------------|
D|---------------4--4---------------|---------------8--8---------------|
A|--------4--4-----------4--4-------|--------8--8----------8S\---------|
E|-2--2-----------------------------|-6--6-----------------------------|

 REPEAT AC & AD UNTIL THE SONG FADES OUT

View Just Lyrics...

I sat alone with the dreams of children
Weeping willows and tall dark building,
I've caught a fashion from the dreams of children
But woke up sweating from this modern nightmare, and
I was alone, no one was there
I was alone, no one was there
I caught a glimpse from the dreams of children
I got a feeling of optimism
But woke up to a grey and lonely picture
The streets below left me feeling dirty, and
I was alone, no one was there
I was alone, no one was there
Something's gonna crack on your dreams tonight...
You will crack on your dreams tonight
I fell in love with the dreams of children
I saw a vision of all the happy days
I've caught a fashion from the dreams of children
But woke up sweating from this modern nightmare, and
I was alone, no one was there
I was alone, no one was there
Something's gonna crack on your dreams tonight...
You will crack on your dreams tonight
You will choke on your dreams tonight

View Albums that This Song Appears On...

  • Setting Sons

    Genre: Pop/Rock Label: Universal Song Duration on Album: 3:06 Album Duration: 32:29

    Release Date: November 16, 1979

    Moods: Bitter, Urgent, Visceral, Aggressive, Cynical/Sarcastic, Raucous, Rousing, Rowdy, Snide, Street-Smart, Stylish, Swaggering, Angst-Ridden, Brash, Brooding, Confident, Confrontational, Earnest, Fiery, Harsh, Rebellious, Reflective, Volatile

    Styles: British Punk, New Wave, Punk, Punk/New Wave, Mod Revival

    Themes: Empowering, Motivation, School

  • Sound Affects

    Genre: Pop/Rock Label: Polydor / Universal Music Song Duration on Album: 2:57 Album Duration: 35:18

    Release Date: November 28, 1980

    Moods: Brash, Confident, Confrontational, Earnest, Passionate, Reflective, Boisterous

    Styles: British Punk, Mod Revival, New Wave, Punk/New Wave

  • Dig the New Breed

    Genre: Pop/Rock Label: Universal Distribution Song Duration on Album: 3:27 Album Duration: 41:15

    Release Date: December 10, 1982

    Moods: Brash, Aggressive, Confident, Earnest, Fiery, Literate, Rousing, Tense/Anxious, Angry, Confrontational, Energetic, Intense, Passionate, Urgent, Reflective, Cathartic, Exuberant, Rebellious, Volatile

    Styles: Alternative/Indie Rock, British Punk, Mod Revival, New Wave, Punk, Punk/New Wave

    Themes: Cool & Cocky

Close panel

Help Rate This Tab by Voting Up or Down

Vote Up Vote Down
Rating: -1 +1

Other Songs Like This

x

Copyright © 2019