Song: If You Were Here

Band: James
Composed By: Douglas James Davenport

Rating: -1 +1 Views: 154

-------------------------------------------------------------------------------
			     If You Were Here - Band Name
-------------------------------------------------------------------------------
Tabbed by:wuggle15(aka James Barton)
Email:wuggle15@otmail.com

Tuning:1e 2B 3G 4D 5A 6E



    

this is song i made up it is played on acoustic but you can play it on electric if you want.
please rate and comment if you think its good or bad or how it could be improved that 
of stuff please say so.THANKS.

X2
e|--------------------------------------------------------------------------|
B|--------------------------------------------------------------------------|
G|--------------------------------------------------------------------------|
D|--------------------------------------------------------------------------|
A|-12-12--10-10-------------------------------------------------------------|
E|-9--10--7--8--------------------------------------------------------------|

X2
e|--------------------------------------------------------------------------|
B|--------------------------------------------------------------------------|
G|-9--10--7--9--------------------------------------------------------------|
D|--------------------------------------------------------------------------|
A|--------------------------------------------------------------------------|
E|--------------------------------------------------------------------------|



    

X4
e|--------------------------------------------------------------------------|
B|--------------------------------------------------------------------------|
G|--------------------------------------------------------------------------|
D|--------------------------------------------------------------------------|
A|-12-12--10-10-------------------------------------------------------------|
E|-9--10--7--8--------------------------------------------------------------|

X4
e|--------------------------------------------------------------------------|
B|--------------------------------------------------------------------------|
G|-9--10--7--9--------------------------------------------------------------|
D|--------------------------------------------------------------------------|
A|--------------------------------------------------------------------------|
E|--------------------------------------------------------------------------|

X4
e|--------------------------------------------------------------------------|
B|--------------------------------------------------------------------------|
G|--------------------------------------------------------------------------|
D|--------------------------------------------------------------------------|
A|-12-12121212--10-10101010-------------------------------------------------|
E|-9--10101010--7--8-8-8-8--------------------------------------------------|

X4
e|--------------------------------------------------------------------------|
B|--------------------------------------------------------------------------|
G|-9999--10--7777--9--------------------------------------------------------|
D|--------------------------------------------------------------------------|
A|--------------------------------------------------------------------------|
E|--------------------------------------------------------------------------|

X4
e|--------------------------------------------------------------------------|
B|--------------------------------------------------------------------------|
G|--------------------------------------------------------------------------|
D|--------------------------------------------------------------------------|
A|-12-12--10-10-------------------------------------------------------------|
E|-9--10--7--8--------------------------------------------------------------|

X4
e|--------------------------------------------------------------------------|
B|--------------------------------------------------------------------------|
G|--------------------------------------------------------------------------|
D|--------------------------------------------------------------------------|
A|-8-8--6-6-----------------------------------------------------------------|
E|-5-6--3-4-----------------------------------------------------------------|

X2
e|--------------------------------------------------------------------------|
B|--------------------------------------------------------------------------|
G|--------------------------------------------------------------------------|
D|--------------------------------------------------------------------------|
A|-12-12--10-10~~-----------------------------------------------------------|
E|-9--10--7--8~~------------------------------------------------------------|

| ~  hold note
===============================================================================

View Albums that This Song Appears On...

  • North

    Label: Esoteric Antenna Song Duration on Album: 5:48

Close panel

Help Rate This Tab by Voting Up or Down

Vote Up Vote Down
Rating: -1 +1

Other Songs Like This

x

Copyright © 2019