Song: Heaven

Band: Jamie Foxx

Rating: -1 +1 Views: 301
Couldn't find a tab for this song anywhere, so thought I'd do it myself! Its my first 
writting a tab so bear with me. Its not quite finished so play round with it where you fit.

The verses are as follows.



    

    D7          G   C maj7
E|---2---3/5\3---3---0----------||
B|---------------0---0----------||
G|-------------------4----------||
D|--0----------------5----------||
A|---------------2---3----------|| repeat 2x
E|---------------3--------------||


   D7          G   Cmaj7 E6add9 Am7   D7sus4
E|---2---3/5\3---3---0----3-----------0------||
B|---------------0---0----4----1---1-----1---||
G|-------------------4----3----0---0-----0---||
D|--0----------------5---------2---2--2--0---||
A|---------------2---3----3----0---0---------||
E|---------------3---------------------------||



    

small interlude between verse 3 & 4
    D7           G   Cmaj7  D7           G Cmaj7 D6  Am7  D7sus4
E|---2---3/5\3---3---0-------2---3/5\3---3---0---2--------0----||
B|---------------0---0-------------------0---0---3---1----1----||
G|-------------------4-----------------------4---2---0----0----||
D|--0----------------5------0----------------5---4---2----0----||
A|---------------2---3-------------------2---3---2---0---------||
E|---------------3-----------------------3---------------------||


It's not quite finished yet as i have yet to tab the bit between verse 4 & 5
hope this helps anyone else who is looking for this song!

Help Rate This Tab by Voting Up or Down

Vote Up Vote Down
Rating: -1 +1

Other Songs Like This

Latest Sheets, Music, Lyrics and Tabs

Latest Discussion about a Sheet, Song, Lyric or Tab

x

Copyright © 2015