Song: Bella Luna

Band: Jason Mraz

Rating: -1 +1 Views: 113

Bella Luna –Jason Mraz
(Live)filthyYou Tube’r version
Tabbed by: Loy A. (iamloy@yahoo.com)  

This is as complete as I could come up with. Use standard tuning. Corrections…do it urself bitch!



    

Intro: Am-Dm-Bm7(5)/(Dm/B)-EAm          Dm            Bm7(5)…              E

e|--------------------------------------------------------|
B|-1p0---(1)1—-1-1p0--------------------------------------|
G|----2p0-2--2-2----2p0-/-4-5-4-457-7-9-10-10109—5h7/9p754|
D|--------2----2------0---0---------7-----10-1010---------|
A|--------0----------------------------------------- -----|
E|----------------------------------7--------------------0|

           Am
Mystery the moon
  Dm
A hole in the sky
  Bm7(5)             Dm/B  
A supernatural nightlight
  Am
So full but often right
  Dm
A pair of eyes a closin' one 
  Am
A chosen child of golden sun
  Bm7(5)-Dm/B

A marble dog that chases cars    
                                      E7(5)- E9+(5)   
To farthest reaches of the beach and far beyond into the
swimming sea of stars



    

Instrumental
         
e|-----------------------------------------------------|
B|-1p0---(1-1)-------------- --------------------------|
G|----2p0-2-2--44--10101010-12-9-9-7-54----------------|
D|--------2(2)(00)-10101010-------------775h75h7/9-----|
A|--------0(0)-----------------------------------------|
E|-----------------------------0-----------------------|

e|----------------|
B|--10101010-12-9-|
G|--10101010------|
D|----------------|
A|----------------|
E|--------------0-|

      Am
A cosmic fish they love to kiss
      Dm
They're giving birth to constellation
      Bm7(5)
No riffs and oh no reservation
      E7(5)
If they should fall you get a wish or dedication
      Dm
May I suggest you get the best
      Am
For nothing less than you and i
      Bm7(no.5)
Let's take a chance as this romance is rising on before we
      E7(no.5)Dm
Lose… lighting
G7                  CM7
Oh bella bella please
       F                Dm7
Bella you beautiful luna
                            E7(no.5)/E9(no.5)
Oh do what you do

Instrumental
e|-----------------------------------------------------|
B|-1p0---(1-1)-------------- --------------------------|
G|----2p0-2-2--44--10101010-12-9-----------------------|
D|--------2(2)(00)-10101010----------------------------|
A|--------0(0)-----------------------------------------|
E|-----------------------------0-----------------------|

e|-----------------------------------------------------|
B|-1313-1313-12-10-12----------------------------------|
G|-1212-1212-12(12)12-10-101010-12-9-------------------|
D|--------------------10-101010------------------------|
A|-----------------------------------------------------|
E|---------------------------------0-------------------|

chord pattern… samexxxsamexxxsame
You are an illuminating anchor
Of leads to infinite number
Crashing waves and breaking thunder
Tiding the evenflows of hunger
You're dancing naked there for me
You expose all memory
You make the most of boundary
You're the ghost of royalty imposing love
You are the queen and king combining everything
Into twining like a ring around the finger of a girl
I'm just a singer, you're the world
All I can bring ya          A|-7--------------|
                     E++    E|---10-8-7-5-----|  
Is the language of a lover
Bella luna, my beautiful…my beautiful moon 
How you swoon me like no other

Instrumental

e|-----------------------------------------|
B|-----------------------------------------|
G|-------5-7/9-7-5-7-5-4-5-4--4-----5------|
D|-----7---------------------7-7-5-7-------The rest
A|-5h7--------------------------------7-5-shred and
E|----------------------------------improvise!

May I suggest you get the best 
Of your wish may I insist 
That no contest for little you and smaller i
A larger chance as this romance is rising on… rising 
On, the brink of our lives
Oh Bella luna oh my... my… beautiful bella baloona
High… how high… high…
          AmFIN
e|------------|
B|--------1---|
G|--------2---|
D|-2-0----2---|
A|----3-2-0---|
E|------------|






Chord Definition
    Bm7(no.5)   Dm/B  E7(5)  E9(5)
e|-----------------------------------|
B|----------------------------8------|
G|---7-----------7-----7------7------|
D|---7-----------7-----6------6------|
A|---------------8-----7------7------|
E|---7-----------7-------------------|

Help Rate This Tab by Voting Up or Down

Vote Up Vote Down
Rating: -1 +1

Other Songs Like This

x

Copyright © 2015