Song: How Deep Is Your Love

Band: John Frusciante

Rating: -1 +1 Views: 56

Tabbed by lugaaw@yahoo.com
 



    

    Eb     Ebm7     Abm        Bbsus4
e|-------|-------|-----------|----------|
B|---8---|---8---|-----------|----------|
G|---8---|---7---|-----5-----|----7-----|
D|---8---|---8---|-----6-----|----6-----|
A|---6---|---6---|-----6-----|----8-----|
E|-------|-------|-----4-----|----6-----|

intro :   

        Eb Ebm7 Abm  Bbsus



    

       "Aaaaah"
       "Howwwaaa"
  

   Eb             Gm             F

"You know your eyes in the morning sun" 
   
   Cm                       F              Bbsus4
"I feel you touch me in the pouring rain"

   Eb             Gm               Cm
"And the moment that you wander far from me"
  
 F                         Bbsus4
"I wanna feel you in my arms again"



  Abm                         Gm
"And you come to me on a summer breeze"
   F                                    Gm7
"Keep me warm in your love and then softly leave"

   Gm                    Fm7
"And its me you need to show"


Chorus : 
            Eb                  Eb

"How deep is your love, how deep is your love"
 Abm               Abm7
"I really need to learn"

   Bbsus4                            C#m
 "Cause we're leaving in a world of fools"
 C                                      F  
"Breaking us down, when they all should let us.."

 F     
"..be"

 Abm
"We belong to you and me"

Eb           Gm   
"La la la la la"
Bbsus         Eb - Break
"Aaaaaaaaah


Note: this is the most accurate  chords its only a matter
      timing

Tabbed by lugaaw@yahoo.com

   C#m       C      Abm7
e--------|-------|-------|
B|---6---|---5---|---7---|
G|---6---|---5---|---4---|
D|---6---|---5---|---6---|
A|-------|-------|---4---|
E|-------|-------|-------|

Close panel

Help Rate This Tab by Voting Up or Down

Vote Up Vote Down
Rating: -1 +1

Other Songs Like This

x

Copyright © 2017