Song: Look On

Band: John Frusciante
Composed By: John Frusciante

Rating: -1 +1 Views: 91

I attempted to tab the full Look On solo the other day and this is what I got, When I 
along with it, it mostly sounds ok, but I want to see what you think because quite a few 
have asked me about this. Some parts are awkward and not 100 percent correct (I have marked these places with an * )




    

e|------------------9----7----9----9---7---------------------------------|
B|----7-----9-------------------------------7---5---7------7---5---------|
G|--------------------------------------------------------------------6--|
D|-----------------------------------------------------------------------|
A|-----------------------------------------------------------------------|
E|-----------------------------------------------------------------------|

e|---------7-7------7--7----7-----7--7--------9^--9^--9^---9^----7--------|
B|---7/9---------9--------9----9--------9~-------------------------9---9--|
G|------------------------------------------------------------------------|
D|------------------------------------------------------------------------|
A|------------------------------------------------------------------------|
E|------------------------------------------------------------------------|

e|----------7---9---7---9---7-------------------------------------7--7----|
B|--7--9-------------------------7---5---7---5---7---5---7/9-----------9--|
G|------------------------------------------------------------------------|
D|------------------------------------------------------------------------|
A|------------------------------------------------------------------------|
E|------------------------------------------------------------------------|



    

e|-------7--7-----------------------------------------------------------|
B|---9----------9---7---5---7---5h7p5------5---5---4--------------------|
G|-----------------------------------------6---------------6---4---6----|
D|----------------------------------------------------------------------|
A|----------------------------------------------------------------------|
E|----------------------------------------------------------------------|

e|----------------------------------------------------------------------|
B|----5--4--------------------------------------------------------------|
G|------------6--4---4h6p4------4--6--4h6p4------4----------------------|
D|-----------------------------6------------------6-------6--4h6p4------|
A|--------------------------------------------------------------------6-|
E|----------------------------------------------------------------------|

e|----------------------------------------------------------------------|
B|----------------------------------------------------------------------|
G|---------------4--4------4--4------6^------4--------------------------|
D|---4-------6---------6----------6--------6----------------------------|
A|-------6--------------------------------------------------------------|
E|----------------------------------------------------------------------|

e|-----------------------------------------------------------------------| *
B|-----------------------------------------------------------------------|
G|-----------------------------------------------------------------------|
D|--4h6p4------4---------------------------------------------------------|
A|-----------6-----------------------------------------------------------|
E|----------------------0--4--4---0h2h4--0h2h4----0-4-4--0h2h4----0h2h4--|

e|----------------------------------------------------------------------|  *
B|----------------------------------------------------------------------|
G|---------------------------------------4---6^---6^--------------------|
D|----------------------4------4----6-----------------------------------|
A|---------2---4---6-------6--------------------------------------------|
E|---0--4---------------------------------------------------------------|

e|-----------------------------------------------7-----7---9^---9^---9^-9--|
B|----7^--7^---7^---7^p5-----------5h7/9-------9---------------------------|
G|------------------------6---6--------------------------------------------|
D|-------------------------------------------------------------------------|
A|-------------------------------------------------------------------------|
E|-------------------------------------------------------------------------|

e|--14^---12---14^---14^---12---14--12--14--12--14--12----14---14--14-12--|
B|------------------------------------------------------------------------|
G|------------------------------------------------------------------------|
D|------------------------------------------------------------------------|
A|------------------------------------------------------------------------|
E|------------------------------------------------------------------------|

e|---14--14--12---14--14--12--14--12----14p12--11---12-------------|
B|-----------------------------------------------------------------|
G|-----------------------------------------------------------------|
D|-----------------------------------------------------------------|
A|-----------------------------------------------------------------|
E|-----------------------------------------------------------------|

e|---14---14---14^--14---12--14---12h14p12---11---11h12p11--------------|
B|-------------------------------------------------------------14--14---|
G|----------------------------------------------------------------------|
D|----------------------------------------------------------------------|
A|----------------------------------------------------------------------|
E|----------------------------------------------------------------------|

e|---19^---19^---16---16--------------19--21--19--21---19---------------|
B|-----------------------------19--21-----------------------------------|
G|----------------------------------------------------------------------|
D|----------------------------------------------------------------------|
A|----------------------------------------------------------------------|
E|----------------------------------------------------------------------|

e|--------------------------------19----19------------------------19------|
B|-19--17---19--17---19---17---19^--19^-----19---17---19---17--19^--19~---|
G|------------------------------------------------------------------------|
D|------------------------------------------------------------------------|
A|------------------------------------------------------------------------|
E|------------------------------------------------------------------------|

e|---19---------19---------19---------------------------------------------|
B|--------19^-------19^-------19^----17--19--17--19--17--16--17-----------|
G|------------------------------------------------------------------------|
D|------------------------------------------------------------------------|
A|------------------------------------------------------------------------|
E|------------------------------------------------------------------------|

e|--------------------------------------14^--------------------------------|
B|---17--16---17--16---14---14-------------14^---14---14p12-------12---14--|
G|--------------------------------------------------------------------13---|
D|-------------------------------------------------------------------------|
A|-------------------------------------------------------------------------|
E|-------------------------------------------------------------------------|

e|-------------------------------------------------------------------------|
B|---14^----14^---14^---14^----14^----14p12-----12---12--12----------------|
G|-------------------------------------------------16--11--9--11--9--11/13-|
D|-------------------------------------------------------------------------|
A|-------------------------------------------------------------------------|
E|-------------------------------------------------------------------------|

e|------------------------------------------------------------------------|
B|------------------------------------------------------------------------|
G|----16p13--13--13---14--13--14--13-----9---9---9--11^--11p9---8---9--9--|
D|------------------------------------------------------------------------|
A|------------------------------------------------------------------------|
E|------------------------------------------------------------------------|

e|------------------------------------------------------------------------|
B|---11^---11^--11^---9--8---9---9----8----6-----4h6--4-------4-----------|
G|-----------------------------------------------------------------6---6--|
D|------------------------------------------------------------------------|
A|------------------------------------------------------------------------|
E|------------------------------------------------------------------------|

e|--------------------------------------------------------------------|  *
B|--------------------------------------------------------------------|
G|-------------------------6/-----------------------------------------|
D|---4--6-------4---6-------------------------------------------------|
A|-----------6--------------------------------------------------------|
E|--------------------------------------------------------------------|

View Albums that This Song Appears On...

  • Inside of Emptiness

    Genre: Pop/Rock Label: The Record Collection / Record Collection Music Song Duration on Album: 6:09 Album Duration: 39:26

    Release Date: October 26, 2004

    Moods: Energetic, Gritty, Melancholy, Reflective, Angst-Ridden, Cathartic, Searching

    Styles: Alternative/Indie Rock, Indie Rock

    Themes: Guys Night Out, Hanging Out

Close panel

Help Rate This Tab by Voting Up or Down

Vote Up Vote Down
Rating: -1 +1

Other Songs Like This

x

Copyright © 2017