Song: As Can Be

Band: John Frusciante

Rating: -1 +1 Views: 99



    

																				e|------------------0----------------------------------------------|
B|-0---------------------------0---0---0---0----0------------------|
G|---2p0-0-----------------------3---3---3---3----2p0-0------------|
D|-------2--------------------------------------------2------------|
A|-----------------------------------------------------------------|
E|---------(x)(x)(x)--(x)(x)(x)-------------------------(x)(x)(x)--|

e|------------------------------------------------------0---|
B|----------0---0---0---0----0-----3----------3-3-3-3-3---0-|
G|------------3---3---3---3----2p0--------------------------|
D|-----------------------------------(x)(x)(x)--------------|
A|----------------------------------------------------------|
E|-(x)(x)(x)------------------------------------------------|

e|--------------------14-14-14-14-14-14------------------(0)--|
B|--3--0---0------------------------------------0-----3-------|
G|-------0---0------------------------------------2p0---------|
D|-------------4----------------------------------------------|
A|------------------------------------------------------------|
E|------------------------------------------------------------|



    

e|-----------0--------------------------------------15

Close panel

Help Rate This Tab by Voting Up or Down

Vote Up Vote Down
Rating: -1 +1

Other Songs Like This

x

Copyright © 2017