Song: One Of Those Days

Band: Joshua Radin
Composed By: Gene Raskin

Rating: -1 +1 Views: 119

-------------------------------------------------------------------------------
		       One of Those Days - Joshua Radin
-------------------------------------------------------------------------------
Tabbed by: Sean Hummer
Email: allstar21369@hotmail.com

This is probably my favorite song on the album.
I created another tab of this song for those wishing to play the chords.



    

This version is intended to be primarily finger picked like he plays it but
I included a chorded version below regardless.


Tuning: Capo on 1st Fret



    



Chord shapes used-

  Am     Am/G    Am/F      C     Fsus2
|--x--| |--x--| |--x--| |--0--| |--0--|
|--1--| |--1--| |--1--| |--1--| |--1--|
|--2--| |--2--| |--2--| |--0--| |--2--|
|--2--| |--2--| |--2--| |--2--| |--3--|
|--0--| |--0--| |--0--| |--3--| |--3--|
|--x--| |--3--| |--1--| |--x--| |--x--|



*Live all of the Am/F and Fsus2    e|-----------------|
 chords are played like this ->    B|--1---1---1---1--|
                                   G|-----------------|
                                   D|3---3---3---3----|
                                   A|-----------------|
                                   E|-----------------|




Intro/Verse-
         Am               Am/G           Am/F           Am/G

e|------------------------------------------------------------------|
B|--1---1---1---1---1---1---1---1---1---1---1---1---1---1---1---0---|
G|------------------------------------------------------------------|
D|------------------------------------------------------------------|x10
A|0---0---0---0-----------------------------------------------------|
E|----------------3---3---3---0---1---1---1---1---3---3---3---3-----|





Chorus-
                C                                Fsus2
e|------------------------------------------------------------------|
B|--1---1---1---1---1---1---1---1---1---1---1---1---1---1---1---1---|
G|------------------------------------------------------------------|
D|------------------------------------------------------------------|x2
A|3---3---3---3---3---3---3---3-------------------------------------|
E|--------------------------------1---1---1---1---1---1---1---1-----|

                C                 Fsus2                 G
e|------------------------------------------------------------------|
B|--1---1---1---1---1---1---1---1---1---1---1---1---1---1---1---1---|
G|------------------------------------------------------------------|
D|------------------------------------------------------------------|
A|3---3---3---3---3---3---3---3-------------------------------------|
E|--------------------------------1---1---0---0---3---3---3---3-----|

e|------------------|
B|--1---1---1---1---|
G|------------------|
D|------------------|
A|------------------|
E|3---3---3---3-----|





Post Chorus-
    Am      Am/G    Am/F    Am/G    Am      Am/G    Am/F    Am/G

e|------------------------------------------------------------------|
B|--1---1---1---1---1---1---1---1---1---1---1---1---1---1---1---1---|
G|------------------------------------------------------------------|
D|------------------------------------------------------------------|x2
A|0---0---------------------------0---0-----------------------------|
E|--------3---3---1---1---3---3-----------3---3---1---1---3---3-----|





Bridge-
               Fsus2                           Am/G

e|------------------------------------------------------------------|
B|--1---1---1---1---1---1---1---1---3---3---3---3---3---3---3---3---|
G|------------------------------------------------------------------|
D|3---3---3---3---3---3---3---3---5---5---5---5---5---5---5---5-----|
A|------------------------------------------------------------------|
E|------------------------------------------------------------------|

                 Am                  C

e|------------------------------------------------------------------|
B|--1---1---1---1---1---1---1---1---1---1---1---1---1---1---1---1---|
G|------------------------------------------------------------------|
D|----------------------------------------0---0---2---2-------------|
A|0---0---0---0---0---0---0---0---3---3-------------------3---3-----|
E|------------------------------------------------------------------|

               Fsus2                           Am/G

e|------------------------------------------------------------------|
B|--1---1---1---1---1---1---1---1---3---3---3---3---3---3---3---3---|
G|------------------------------------------------------------------|
D|3---3---3---3---3---3---3---3---5---5---5---5---5---5---5---5-----|
A|------------------------------------------------------------------|
E|------------------------------------------------------------------|

                 Am               Fsus2                Am/G

e|------------------------------------------------------------------|
B|--1---1---1---1---1---1---1---1---1---1---1---1---1---1---1---1---|
G|------------------------------------------------------------------|
D|------------------------------------------------------------------|
A|0---0---0---0---0---0---0---0-------------------------------------|
E|--------------------------------1---1---0---0---3---3---3---3-----|

e|------------------|
B|--1---1---1---1---|
G|------------------|
D|------------------|
A|------------------|
E|3---3---3---3-----|



=======================================================================|
*These extra chords are provided for those
whom prefer to strum the song.



  C5     Csus2

View Albums that This Song Appears On...

  • Simple Times

    Genre: Pop/Rock Label: 14th Floor Recordings Song Duration on Album: 3:01 Album Duration: 33:33

    Release Date: September 30, 2008

    Moods: Reflective, Delicate, Melancholy, Soft/Quiet, Earnest, Gentle, Restrained, Searching, Warm, Wistful, Autumnal, Sentimental, Somber

    Styles: Adult Alternative Pop/Rock, Alternative/Indie Rock

    Themes: Introspection, Reflection, Early Morning, Sunday Afternoon, In Love

  • One of Those Days [2 Tracks]

    Label: 14th Floor Records Song Duration on Album: 3:02

    Release Date: 2008

Close panel

Help Rate This Tab by Voting Up or Down

Vote Up Vote Down
Rating: -1 +1

Other Songs Like This

x

Copyright © 2017