Song: This Is The End Of Your Life Bass

Band: Juliana Theory

Rating: -1 +1 Views: 48

Artist: The Juliana Theory
Album: Music From Another Room (EP)
Track: This Is The End Of Your Life
Tuning: EADG
Tabbed By: Plastriq (mlowijs@hotmail.com)

0:57
G|-------------------|
D|-------------------|
A|-----3--------3----|
E|--5-----5--5-----5-|



    

0:59 (Verse) (x7)
G|-----------------------------------|
D|----------------3------------------|
A|--5--5-5--3--5---------------------|
E|-------------------3--3-3--6--6--6-|

1:31 (Riff A)
G|----------|
D|----------|
A|-----3----|
E|--5-----5-|

1:32 (Verse) (x8)



    


2:06 (Chorus) (x2)
G|---------------------------------|
D|---------------------------------|
A|--5--5-5--5--5--------10--10--10-|
E|---------------6--6-6------------|

G|------------------------------|
D|------------------------------|
A|--5--5-5--5--5----------------|
E|---------------6--6-6-3--3--3-|

G|----------------------------------|
D|----------------------------------|
A|--5--5-5-3h5--5--------10--10--10-|
E|----------------6--6-6------------|

G|---------------------------------|
D|---------------------------------|
A|--5--5-5-3h5--5------------------|
E|----------------6--6-6-3--3--3---|

2:38 (Riff A)


2:39 (Verse) (x8)


3:13 (Chorus) (x2)


3:46 (Bridge)
G|-----------------------------------------|
D|-----------------------------------------|
A|--3h5--5--5-3h5--5--5-3h5--5--5--8--8--8-|
E|-----------------------------------------|

3:50  (x4)
G|------------------------------------------|
D|------------------------------------------|
A|----------------------5--5-5--5-5--5-8--8-|
E|--6--6-6--6-6--6-6--6---------------------|

4:24 (x6)
G|----------------|
D|--5---8---7-----|
A|--------------5-|
E|----------------|

4:49 (Verse) (4x)


5:08 (Chorus) (2x)


5:41 (Bridge)


5:45
G|-----------------------------------------------------------|
D|-----------------------------------------------------------|
A|--3h5--5--5-3h5--5--5-3h5--5--5--8--8--8--8--8--8--8--8--8-|
E|-----------------------------------------------------------|

Close panel

Help Rate This Tab by Voting Up or Down

Vote Up Vote Down
Rating: -1 +1

Other Songs Like This

x

Copyright © 2019