Song: Heroes To Us

Band: Kalmah
Composed By: Chris Tompkins, Rodney Clawson, Thomas Rhett

Rating: -0 +0 Views: 61



    

																				  Gtr 1
1|----------------------------7-------------------------------------------|
2|---8---8-7/5---5~-----8----8--8-10-7~---8---8-7/5---5~--5---5---7---7---|
3|-----9-------7----------9-9---------------9-------7-------5---5---7---7-|
4|------------------------------------------------------------------------|
5|------------------------------------------------------------------------|
6|------------------------------------------------------------------------|
 |
 |Gtr 2
1|------------------------------------------------------------------------|
2|------------------------------------------------------------------------|
3|------------------------------------------------------------------------|
4|-2----------------2-2-----------------2-----------------5-5-5-5-7-7-7-7-|
5|-2----------------2-2-----------------2-----------------5-5-5-5-7-7-7-7-|
6|-0----------------0-0-----------------0-----------------3-3-3-3-5-5-5-5-|
                    *

1|----------------------------7--------------------------------------------------|
2|---8---8-7/5---5~-----8----8--8----------------8---8-7/5---5~--5---5---7---7---|
3|-----9-------7----------9-9-----9b11-9b11-9b11---9-------7-------5---5---7---7-|
4|--------------------------------ph---ph---ph-----------------------------------|
5|-------------------------------------------------------------------------------|
6|-------------------------------------------------------------------------------|
 |
 |
1|-------------------------------------------------------------------------------|
2|-------------------------------------------------------------------------------|
3|-------------------------------------------------------------------------------|
4|-2----------------2-2---------------------2--------------------5-5-5-5-7-7-7-7-|
5|-2----------------2-2---------------------2--------------------5-5-5-5-7-7-7-7-|
6|-0----------------0-0---------------------0--------------------3-3-3-3-5-5-5-5-|
                    *

1|-----------------|
2|-5---5---7---7---|
3|---5---5---7---7-|
4|-----------------|
5|-----------------|
6|-----------------|
 |
 |
1|-----------------|
2|-----------------|
3|-----------------|
4|-555-5-55777-7-77|
5|-555-5-55777-7-77|
6|-333-3-33555-5-55|



    

1|----------------------------7-------------------------------------------|
2|---8---8-7/5---5~-----8----8--8-10-7~---8---8-7/5---5~--5---5---7---7---|
3|-----9-------7----------9-9---------------9-------7-------5---5---7---7-|
4|------------------------------------------------------------------------|
5|------------------------------------------------------------------------|
6|------------------------------------------------------------------------|
 |
 |
1|------------------------------------------------------------------------|
2|------------------------------------------------------------------------|
3|------------------------------------------------------------------------|
4|-222-2-22222--222--222-2-22222--222--222-2-22222--222---555-5-55777-7-77|
5|-222-2-22222--222--222-2-22222--222--222-2-22222--222---555-5-55777-7-77|
6|-000-0-00000--000--000-0-00000--000--000-0-00000--000---333-3-33555-5-55|

1|----------------------------7-------------------------------|
2|---8---8-7/5---5~-----8----8--8--------------8---8-7/5---5~-|
3|-----9-------7----------9-9-----(9)11r9-9b11~--9-------7----|
4|---------------------------------ph-----ph------------------|
5|------------------------------------------------------------|
6|------------------------------------------------------------|
 |
 |
1|------------------------------------------------------------|
2|------------------------------------------------------------|
3|------------------------------------------------------------|
4|-222-2-22222--222--222-2-22222---2--2--2---222-2-22222--222-|
5|-222-2-22222--222--222-2-22222---2--2--2---222-2-22222--222-|
6|-000-0-00000--000--000-0-00000---0--0--0---000-0-00000--000-|

1|-----------------|
2|-5---5-----------|
3|---5---5-7-7-7\\-|
4|---------ph--ph--|
5|-----------------|
6|-----------------|
 |
 |
1|-----------------|
2|-----------------|
3|-----------------|
4|-5-5-5-5-7-7-7-7-|
5|-5-5-5-5-7-7-7-7-|
6|-3-3-3-3-5-5-5-5-|

View Albums that This Song Appears On...

  • Swampsong

    Genre: Pop/Rock Label: Spikefarm Records Album Duration: 43:47

    Release Date: July 29, 2003

    Styles: Death Metal, Heavy Metal, Scandinavian Metal, Symphonic Black Metal

Close panel

Help Rate This Tab by Voting Up or Down

Vote Up Vote Down
Rating: -0 +0

Other Songs Like This

x

Copyright © 2017