Song: Parijs

Band: Kenny B

Rating: -0 +0 Views: 12

-------------------------------------------------------------------------------
                             Parijs - Kenny B
-------------------------------------------------------------------------------
Tabbed by: Bart Vonk

In the live version the guitar is tuned half a tone down. On the record standard tuning 
is used.
I only put down the main chords and some variations. I suggest you listen to the track.
For reference please refer to this video: http://giel.vara.nl/media/336856



    

Intro
e|-9----------5---0--------------------------------------------------------|
B|-10---------5---0--------------------------------------------------------|
G|-9-----14---7---2--------------------------------------------------------|
D|-11----14---7---2--------------------------------------------------------|
A|-9-----12---5---0--------------------------------------------------------|
E|-------------------------------------------------------------------------|

Use alternate picking and try keep the notes very short and tight. Keep your hand 
constantly moving while palm
muting to get the rhythm sound. Some variations are played for the last pulloff.

Verse
4x
e|-------------------------------------------------------------------------|
B|----------10-----------------------5-------------------------------------|
G|-------------9--9--9h11------7--------------2--2--4p2--------------------|
D|----11-------9------------------7-------7---2----------------------------|
A|-9------9------------------5---------5-----------------------------------|
E|-------------------------------------------------------------------------|



    

Pre-Chorus
e|-9----------5---0-----------9----------5---0-----------------------------|
B|-10---------5---0-----------10---------5---0-----------------------------|
G|-9-----14---7---2-----------9-----14---7---2-----------------------------|
D|-11----14---7---2-----------11----14---7---2-----------------------------|
A|-9-----12---5---0-----------9-----12---5---0-----------------------------|
E|-------------------------------------------------------------------------|

Chorus
2x
e|-5-5-x-5/7/9--7--5-5-----4-4-x----------------------9-----5--------------|
B|-5-5-x-5/7/9--7--5-5-----5-5-x-5/7/9--9--10-10------10----5--------------|
G|-6-6-x-------------------4-4-x-6/7/9--9--11-11------9-----7--------------|
D|-7-7-x-------------------6-6-x----------------------11----7--------------|
A|-7-7-x-------------------4-4-x----------------------9-----5--------------|
E|-5-5-x-------------------------------------------------------------------|


Verse
e|-------------------------------------------------------------------------|
B|----------10-----------------------5-------------------------------------|
G|-------------9--9--9h11------7--------------2--2--4p2--------------------|
D|----11-------9------------------7-------7---2----------------------------|
A|-9------9------------------5---------5-----------------------------------|
E|-------------------------------------------------------------------------|

e|-------------------------------------------------------------------------|
B|----------10-----------------------5-------------------------------------|
G|-------------9--9--9h11------7--------------2----------------------------|
D|----11-------9------------------7-------7---2----------------------------|
A|-9------9------------------5---------5-----------------------------------|
E|-------------------------------------------------------------------------|

2x
e|-------------------------------------------------------------------------|
B|----------10-----------------------5-------------------------------------|
G|-------------9--9--9h11------7--------------2--2--4p2--------------------|
D|----11-------9------------------7-------7---2----------------------------|
A|-9------9------------------5---------5-----------------------------------|
E|-------------------------------------------------------------------------|


Pre-Chorus
e|-9----------5---0-----------9----------5---0-----------------------------|
B|-10---------5---0-----------10---------5---0-----------------------------|
G|-9-----14---7---2-----------9-----14---7---2-----------------------------|
D|-11----14---7---2-----------11----14---7---2-----------------------------|
A|-9-----12---5---0-----------9-----12---5---0-----------------------------|
E|-------------------------------------------------------------------------|

Chorus
2x
e|-5-5-x-5/7/9--7--5-5-----4-4-x----------------------9-----5--------------|
B|-5-5-x-5/7/9--7--5-5-----5-5-x-5/7/9--9--10-10------10----5--------------|
G|-6-6-x-------------------4-4-x-6/7/9--9--11-11------9-----7--------------|
D|-7-7-x-------------------6-6-x----------------------11----7--------------|
A|-7-7-x-------------------4-4-x----------------------9-----5--------------|
E|-5-5-x-------------------------------------------------------------------|


Bridge
e|-0--4--9---5------0--4--9---5--------0-----4--9---5--5-------------------|
B|-0--5--10--5------0--5--10--5--------0-----5--10--5--5-------------------|
G|-2--4--9---7------2--4--9---7--------2-----4--9---7--5-------------------|
D|-2--6--11--7------2--6--11--7--------2-----6--11--7--7-------------------|
A|-0--4--9---5------0--4--9---5--------0-----4--9---5--5-------------------|
E|---------------------------------------3-4-------------------------------|

Chorus
e|-5-5-x-5/7/9--7--5-5----4------9----12-9----5----------------------------|
B|-5-5-x-5/7/9--7--5-5----4h5----9h10-10-10---7----------------------------|
G|-6-6-x------------------4------9----9--9----6----------------------------|
D|-7-7-x------------------4h6----9h11-11-11---7----------------------------|
A|-7-7-x------------------4------9----9--9----5----------------------------|
E|-5-5-x-------------------------------------------------------------------|

e|-5--------------4------9----12--9----5-----------------------------------|
B|-5--------------4h5----9h10-10-10----7-----------------------------------|
G|-6--------------4------9----9--9-----6-----------------------------------|
D|-7--------------4h6----9h11-11-11----7-----------------------------------|
A|-7--------------4------9----9--9-----5-----------------------------------|
E|-5-x-5-x-7-x-9-----------------------------------------------------------|

Outro
e|-9----------5---0--------9---------5---0--------5--0--5------------------|
B|-10---------5---0--------10--------5---0--------5--0--5------------------|
G|-9-----14---7---2--------9----14---7---2--------7--2--7------------------|
D|-11----14---7---2--------11---14---7---2--------7--2--7------------------|
A|-9-----12---5---0--------9----12---5---0--------5--0--5------------------|
E|-------------------------------------------------------------------------|

************************************

| /   slide up
| \   slide down
| h   hammer-on
| p   pull-off
| ~   vibrato
| +   harmonic
| x   Mute note
| b   Bend
| pb  Pre-bend
| br  Bend release
| pbr Pre-bend release
| brb Bend release bend

************************************

Close panel

Help Rate This Tab by Voting Up or Down

Vote Up Vote Down
Rating: -0 +0

Other Songs Like This

x

Copyright © 2017