Song: Sing A Song Of Song Bass

Band: Kenny Garrett
Composed By: Kenny Garrett

Rating: -1 +1 Views: 733

Tabbed by: Daniel Corrigan
Email: d_snowboard@hotmail.com




    

Bass line   

A Section
 
G|-----13~~~~~-|-----9~~~~-|-----11~~~~-|-----9~~~~-|
D|---9---------|---5-------|---7--------|---9-------|
A|-7-----------|-3---------|-5----------|-7---------|
E|-------------|-----------|------------|-----------|



    

B Section

G|------------|------------|------------|-------------|-------------|
D|-----9~~~~~-|------------|-----9~~~~~-|-------------|-------------|
A|-7----------|-7----------|-7----------|-7---7-9---9-|-7---7-9---9-|
E|------------|-----7~~~~~-|------------|-------------|-------------|


Melody line

A Section

G|-13--11-13--14-13-----------9~~--|
D|------------------14---9-12------|
A|---------------------------------|
E|---------------------------------|

G|-11--9-11--12-11------------9~~--|
D|------------------14--10-12------|
A|---------------------------------|
E|---------------------------------|

B Section

G|-9---8-9-10--8~~--|-9---8-6--------|
D|------------------|---------9~~~~--|
A|------------------|----------------|
E|------------------|----------------|

G|-9---8-9-10--8~~--|-9-8------8-6--6-----|
D|------------------|-----9--9--------9~~-|
A|------------------|---------------------|
E|------------------|---------------------|

| /  slide up
| \  slide down
| h  hammer-on
| p  pull-off
| ~  vibrato
| +  harmonic
| x  Mute note
===============================================================================

View Albums that This Song Appears On...

  • Songbook

    Genre: Jazz Label: Warner Bros. Song Duration on Album: 7:22 Album Duration: 59:35

    Release Date: 1997

    Moods: Freewheeling, Passionate, Complex, Knotty, Searching, Cerebral, Confident, Earthy, Intimate, Uncompromising, Earnest, Intense, Reflective, Sophisticated, Stylish, Gritty, Street-Smart

    Styles: Post-Bop, Contemporary Jazz, Jazz Instrument, Saxophone Jazz

    Themes: Freedom, Hanging Out, Introspection, Late Night, Small Gathering

Close panel

Help Rate This Tab by Voting Up or Down

Vote Up Vote Down
Rating: -1 +1

Other Songs Like This

x

Copyright © 2017