Song: Grief Stricken

Band: Kingsize Blues
Composed By: George Jackson

Rating: -0 +0 Views: 98



    

																				kingsize blues-grief stricken

drop d tuning

awesome song by an awesome band. its mostly right.
any corrections welcome.
i think theres 2 guitars but i have only tabbed the lead part.



    

intro
|-----------------------------------------------------------|
|--------------------------3--------------------------------|
|--------5-------------5------------5-----------------------| x6
|-00-2-3---3-2-0-0-2-3---3---00-2-3---3-2--5-3-2-3-2h3p2----|
|-00-----------0-0-----------00--------------------------3--|
|-00-----------0-0-----------00-----------------------------|


chorus
|---------------------------------------------------|
|---------------------------------------------------|
|-7-77----------------------------------------------| x4
|-7-77-7-77-8-8-xx-5-3-2--5xx5xx5-7-8-8-8-10-10-10--|
|-5-55-7-77-8-8-xx-5-3-2--5xx5xx5-7-8-8-8-10-10-10--|
|------7-77-8-8-xx-5-3-2--5xx5xx5-7-8-8-8-10-10-10--|

post chorus                               second ending
|-----------------------------------------|----------|
|-----------------------------------------|----------|
|-----------------------------------------|-------7*-|
|-88-7-5-----88-7-5---55-7-5-----8-7-5-7--|-3-5-7----|
|-88-----7h8-88-----7-55-----7h8-8-7-5-7--|-3-5-7----|
|-88--0-0----88--0-0--55--0-0----8-7-5-7--|-3-5-7----|

play this part twice, first time play the 8 7 5 7 at the end,
second time play the second ending

chorus x4

intro x4

chorus x4

post chorus x2

chorus x4

breakdown part 1
|-------------------------------------------------10*--|
|-------------------------------------------------14*--|
|------------------------------------------------------| x6
|-0000000-00000000000-00000000000-000000004447772------|
|-0000000-00000000000-00000000000-000000004447772------|
|-0000000-00000000000-00000000000-000000004447772------|

in both parts of the breakdown i have not written the exact amount of 0s
or the exact rhythm.

breakdown part 2
|---------------------------------------------------10--|
|---------------------------------------------------14--|
|-------------------------------------------------------| x1
|-0-000-000-0-000-000-000-0-000-000-000-0-000-4-7-2-----|
|-0-000-000-0-000-000-000-0-000-000-000-0-000-4-7-2-----|
|-0-000-000-0-000-000-000-0-000-000-000-0-000-4-7-2-----|

breakdown part 1 x1
breakdown part 2 x1

bridge part 1
|------------------------------------------------|
|------------------------------------------------|
|------------------------------------------------|
|-----7------------------------------------------|
|-5-5-------7---------8-7-5--------8---------10--|
|-------7-7---8-8-8-8-------5b-7-8---8-10-10-----|

bridge part 2
|-------------------------------------------------|
|-------------------------------------------------|
|-------------------------------------------------|
|-----7-------------------------------------------|
|-5-5------7---------8-7-5----8-7-5---8-------10--|
|------7-7---8-8-8-8-------5b-------8---10-10-----|

play bridge1 then part 2 then part 1 then part 2.


solo
|---------------------------------------------------------------------|
|-15b-13b------------18-------18--20b-18b-17-18-17-15-17-15h17p17-13--|
|---------15b--14-15----14-15-----------------------------------------|
|---------------------------------------------------------------------|
|---------------------------------------------------------------------|
|---------------------------------------------------------------------|

|-----------------------------------------22~-20~--|
|-15b-13b-----------18-------18-20~-18~-17---------|
|---------15b--14-15---14-15-----------------------|
|--------------------------------------------------|
|--------------------------------------------------|
|--------------------------------------------------|

|-22~-20~-18-17-18-20--18-17-18~-17-20p18p17-20p18p17-20p18p17-20p18p17-|
|-----------------------------------------------------------------------|
|-----------------------------------------------------------------------|
|-----------------------------------------------------------------------|
|-----------------------------------------------------------------------|
|-----------------------------------------------------------------------|

|------------------------------------------------------20-22--|
|-22b-20b-18--17-18-20-18-17-18~-20--17-18-20-17-18-20--------|
|-------------------------------------------------------------|
|-------------------------------------------------------------|
|-------------------------------------------------------------|
|-------------------------------------------------------------|

intro x2

chorus x4


============end==============


www.kingsizeblues.com

View Albums that This Song Appears On...

  • Live Fast and Die

    Label: Anticulture

    Release Date: October 31, 2005

    Styles: Heavy Metal

Close panel

Help Rate This Tab by Voting Up or Down

Vote Up Vote Down
Rating: -0 +0

Other Songs Like This

x

Copyright © 2017