Song: Dragon Pie Bass

Band: Knights Of The A 1000 byss

Rating: -0 +0 Views: 29



    

																				------------------------------------------------------------------|
-----------0---2--------------------------------------------------|
---2-1-4-2---4-------1-2-4---4-2-1--------------------------------|  x4
-3-----------------3-------3--------------------------------------|


--------------------------------------------0---------------------|
-----0---4--------------------------0---4-----4-2-4---------------|
-2-2---2---2--2-2-2-2-2-2-2-2---2-2---2---2-----------------------|  x2
------------------------------------------------------------------|



Close panel

Help Rate This Tab by Voting Up or Down

Vote Up Vote Down
Rating: -0 +0

Other Songs Like This

x

Copyright © 2017