Song: Heartbeat

Band: Koo Chung
Composed By: Sherman Wu

Rating: -0 +0 Views: 134



    

																				-------------------------------------------------------------------------------
			     HEARTBEAT - Koo Chung
-------------------------------------------------------------------------------
Tabbed by:m.lee
Email:manny.lee@gmail.com

Capo on 6th fret

Tuning: Normal



    

will finish later

e|---------------------------------------------------------------------------|
B|----5---5---5---5---3---3---3---3---3---3---3---3---3---3------------------|
G|---0---0---0---0---0---0---0---0---0---0---0---0---2---2----2p0--2---------|
D|--4---4---4---4---4---4---4---4---0---0---0---0---0---0---0-0---0----------|
A|-5---5---5---5---5---5---5---5---3---3---3---3-----------------------------|
E|-------------------------------------------------0---0---0-----------------|

e|---------------------------------------------------------------------------|
B|-----0---1---1/3-3---3---3---3----0---0---1--------------------------------|
G|-----0---0---0---0---0---0---0----0---0---0--------------------------------|
D|---0---0-2---2/4-4---4---4---4----0---0---2--------------------------------|
A|-------------------------5-5---0-------------------------------------------|
E|-3-------3-3-----0-0---0----------3-3---3-3-3------------------------------|

View Albums that This Song Appears On...

  • Commas Come First

    Genre: Pop/Rock Label: Broken For Good Records Song Duration on Album: 5:13 Album Duration: 44:42

    Release Date: October 3, 2005

Close panel

Help Rate This Tab by Voting Up or Down

Vote Up Vote Down
Rating: -0 +0

Other Songs Like This

x

Copyright © 2017