Song: 11th Hour

Band: Lamb Of God
Composed By: Lamb of God

Rating: -1 +1 Views: 111



    

																				#----------------------------------PLEASE NOTE---------------------------------#
#This file is the author's own work and represents their interpretation of the #
#song. You may only use this file for private study, scholarship, or research. #
#------------------------------------------------------------------------------##

                                    11TH HOUR
                           As recorded by Lamb of God
                    (From the 2003 Album AS THE PALACES BURN)

Words and Music by Lamb of God
Transcribed by GuitarHero_JP



    

Gtr I (D A D G B E) - 'Guitar I'
Gtr II (D A D G B E) - 'Guitar II'

   Intro
    Q=202
   12/8
    Gtrs I, II
                      PM----------|                     PM----------|
     E  E  E  E  E  E E S S E E E E    E  E  E  E  E  E E S S E E E E
||----------------------------------|---------------------------------|
||o---------------------------------|---------------------------------|
||----------------------------------|---------------------------------|
||----------------------------------|---------------------------------|
||o-12-------13-12------------------|-12-------13-12------------------|
||-----13-12-------13-0-0-0-0-0-0-0-|----13-12-------13-0-0-0-0-0-0-0-|


                    PM----------|
   E  E  E  E  E  E E S S E E E E    E  E  E  E  E  E  E  E  E  E  E  E
|---------------------------------|--------------------------------------||
|---------------------------------|-------------------------------------o||
|---------------------------------|--------------------------------------||
|---------------------------------|--------------------------------------||
|-12-------13-12------------------|-12-------13-12----12-11----11-10----o||
|----13-12-------13-0-0-0-0-0-0-0-|----13-12-------13-------12-------11--||


                      PM
  E E E E E E E E E E E E

|-------------------------|
|-------------------------|
|-------------------------|
|-------------------8---7-|
|-8-7-6-------5-----6---5-|
|-------9-8-7---6-5---0---|


   Pre-Verse
    PM--|     PM----|                             PM
    E E E E E E E E E E E E   E E E E E E E E E E E E   4x
||--------------------------|---------------------------||
||o-------------------------|--------------------------o||
||--------------------------|---------------------------||
||--------------------------|-------------------8---7---||
||o-------1p0---------1p0-4-|-------1-0---5-----6---5--o||
||--0-0-0-1p0-0-0-0-0-1p0-4-|-0-0-0-1-0-0---6-5---0-----||


  E S S E E E E E S S E E E E   E S S E E E E E E E E E E
|-----------------------------|----------------------------|
|-----------------------------|----------------------------|
|-----------------------------|----------------------------|
|-----------------------------|----------------------------|
|-----------------------------|---------------3/7---7-8-8--|
|-4-4-4-4-4-4-4---4-4-4-4-4-4-|-3-3-3-3-3-3-3-3/7-0-7-7-7--|


   Verse
    PM--|     PM----|                             PM
    E E E E E E E E E E E E   E E E E E E E E E E E E   4x
||--------------------------|---------------------------||
||o-------------------------|--------------------------o||
||--------------------------|---------------------------||
||--------------------------|-------------------8---7---||
||o-------1p0---------1p0-4-|-------1-0---5-----6---5--o||
||--0-0-0-1p0-0-0-0-0-1p0-4-|-0-0-0-1-0-0---6-5---0-----||


  E S S E E E E E S S E E E E   E S S E E E E E E E E E E
|-----------------------------|----------------------------|
|-----------------------------|----------------------------|
|-----------------------------|----------------------------|
|-----------------------------|----------------------------|
|-----------------------------|---------------3/7---7-8-8--|
|-4-4-4-4-4-4-4---4-4-4-4-4-4-|-3-3-3-3-3-3-3-3/7-0-7-7-7--|


   Chorus
    PM----------|     PM----|
    E S S E E E E Q.  E S S E   E E E Q.   E S S E Q.
||----------------------------|-------------------------|
||o---------------------------|-------------------------|
||----------------9-----------|-------9------------9----|
||----------------0-----------|-------0------------0----|
||o---------------------------|-------------------------|
||--0-0-0-0-0-0-0-----0-0-0-0-|-0-0-0------0-0-0-0------|


  PM----------|       PM------------|
  E S S E E E E  Q.   E S S E   E E E  Q.    E  E  E  Q      E
|-----------------------------|---------------------------------|
|-----------------------------|---------------------------------|
|---------------10------------|-------10----14-13----13b14r=====|
|----------------0------------|--------0----------15--------15--|
|-----------------------------|---------------------------------|
|-8-8-8-8-8-8-8-------8-8-8-8-|-8-8-8---------------------------|


  PM----------|      PM------------|      PM----|
  E S S E E E E Q.   E S S E   E E E Q.   E S S E Q.
|----------------------------|-------------------------|
|----------------------------|-------------------------|
|---------------9------------|-------9------------9----|
|---------------0------------|-------0------------0----|
|----------------------------|-------------------------|
|-0-0-0-0-0-0-0------0-0-0-0-|-0-0-0------0-0-0-0------|


  PM----------|       PM------------|
  E S S E E E E  Q.   E S S E   E E E  Q.    E  E E E  E E
|-----------------------------|------------------------------||
|-----------------------------|-----------------------------o||
|---------------10------------|-------10---------------------||
|----------------0------------|--------0---------------------||
|-----------------------------|-------------12-10-8---10----o||
|-8-8-8-8-8-8-8-------8-8-8-8-|-8-8-8---------------8----8---||


   Interlude
    E S S E E E E E H    +E    E S S E E E E E H    +E
||---------------------------|--------------------------|
||o--------------------------|--------------------------|
||---------------------------|--------------------------|
||---------------------------|--------------------------|
||o---------------7/8----(8)-|---------------7/8----(8)-|
||--0-0-0-0-0-0-0------------|-0-0-0-0-0-0-0------------|


  E S S E E E E E H    +E    E S S E E E E E E E E E E
|--------------------------|-----------------------------||
|--------------------------|----------------------------o||
|--------------------------|-----------------------------||
|--------------------------|-----------------------------||
|---------------7/8----(8)-|---------------7/8---8-7-7--o||
|-8-8-8-8-8-8-8------------|-5-5-5-5-5-5-5-----5---------||


    Gtr I
    E S S E E E E  E  H     +E    E S S E E E E  E  H     +E
||------------------------------|-----------------------------|
||o-----------------------------|-----------------------------|
||------------------------------|-----------------------------|
||------------------------------|-----------------------------|
||o----------------7/=8-----(8)-|----------------7/=8-----(8)-|
||--0-0-0-0-0-0-0---------------|-0-0-0-0-0-0-0---------------|
|
|   Gtr II
|   E S S E E E E  E  H     +E    E S S E E E E  E  H     +E
||------------------------------|-----------------------------|
||o-----------------------------|-----------------------------|
||------------------------------|-----------------------------|
||------------------------------|-----------------------------|
||o---------------10/12----(12)-|---------------10/12----(12)-|
||--0-0-0-0-0-0-0---------------|-0-0-0-0-0-0-0---------------|


  E S S E E E E  E  H     +E    E S S E E E E E E E E E E
|-----------------------------|-----------------------------||
|-----------------------------|----------------------------o||
|-----------------------------|-----------------------------||
|-----------------------------|-----------------------------||
|----------------7/=8-----(8)-|---------------7/8---8-7-7--o||
|-8-8-8-8-8-8-8---------------|-5-5-5-5-5-5-5-----5---------||
|
| E S S E E E E  E  H     +E    E S S E E E E E E E E E E
|-----------------------------|-----------------------------||
|-----------------------------|----------------------------o||
|-----------------------------|-----------------------------||
|-----------------------------|---------------5/7---7-5-5---||
|---------------12/13----(13)-|----------------------------o||
|-8-8-8-8-8-8-8---------------|-5-5-5-5-5-5-5-----5---------||


   Chorus 2
    Gtrs I, II
    PM----------|      PM----|
    E S S E E E E Q.   E S S E   E E E Q.   E S S E Q.
||-----------------------------|--------------------------|
||o----------------------------|--------------------------|
||----------------9------------|-------9------------9-----|
||----------------0------------|-------0------------0-----|
||o----------------------------|--------------------------|
||--0-0-0-0-0-0-0------0-0-0-0-|-0-0-0------0-0-0-0-------|


  PM----------|       PM------------|
  E S S E E E E  Q.   E S S E   E E E  Q.    E  E  E  Q      E
|-----------------------------|---------------------------------|
|-----------------------------|---------------------------------|
|---------------10------------|-------10----14-13----13b14r=====|
|----------------0------------|--------0----------15--------15--|
|-----------------------------|---------------------------------|
|-8-8-8-8-8-8-8-------8-8-8-8-|-8-8-8---------------------------|


  PM----------|      PM------------|      PM----|
  E S S E E E E Q.   E S S E   E E E Q.   E S S E Q.
|----------------------------|--------------------------|
|----------------------------|--------------------------|
|---------------9------------|-------9------------9-----|
|---------------0------------|-------0------------0-----|
|----------------------------|--------------------------|
|-0-0-0-0-0-0-0------0-0-0-0-|-0-0-0------0-0-0-0-------|


  PM----------|       PM------------|
  E S S E E E E  Q.   E S S E   E E E  Q.    E  E E E  E E
|-----------------------------|------------------------------||
|-----------------------------|-----------------------------o||
|---------------10------------|-------10---------------------||
|----------------0------------|--------0---------------------||
|-----------------------------|-------------12-10-8---10----o||
|-8-8-8-8-8-8-8-------8-8-8-8-|-8-8-8---------------8----8---||


  Q=210
   E  E E E  E E E E E  E E E

|-----------------------------||----|
|-----------------------------||----|
|-----------------------------||----|
|-----------------------------||----|
|-12-10-8---10---8-7-5-10-8-7-||----|
|---------8----8--------------||----|


   Breakdown
   4/4
    S S E E E  E E  E E   E E  E S S E E E S S
||----------------------|----------------------|
||o---------------------|----------------------|
||----------------------|----------------------|
||----------------------|-----10-------8-7-----|
||o-------8---12---10---|----------------------|
||--0-0-0---0----0----0-|-8-0----8-8-7-----0-0-|


  S S E E E  E E  E E   E Q    E E Q
|---------------------|--------------------|
|---------------------|--------------------|
|---------------------|--------------------|
|---------------------|--------------------|
|-------8---12---10---|------------3b5r====|
|-0-0-0---0----0----0-|-3-5b6r=0-0---------|


  S S E E E  E E E E   E E E E S S E S S E
|--------------------|---------------------|
|--------------------|---------------------|
|--------------------|---------------------|
|--------------------|---------------------|
|-------7---10---8---|-7---8---7h8p7-------|
|-8-8-8---8----8---8-|---8---8-------8-8-8-|


  E E E E E E E E   E Q    E E Q
|-----------------|--------------------||
|-----------------|-------------------o||
|-----------------|--------------------||
|---------8---7---|--------------------||
|-----8-----------|-------------------o||
|-5-5---5---5---5-|-3-5b6r=0-3-6b7-----||


    Q=208                       1.,2.,3.
    S S S S S E. S S S S S E.   S S S S S S S S S S S S S E.  3x
||----------------------------|-------------------------------||
||o---------------------------|------------------------------o||
||----------------------------|-------------------------------||
||----------------------------|-------------------------------||
||o---------------------------|------------------------------o||
||--0-0-0-0-0----0-0-0-0-0----|-0-0-0-0-0---0-0-0-0-0-0-0-----||


  4.200
  PM----|
  |--3--|
  Q  Q  Q  H
|---------------||----|
|----------5----||----|
|----------8----||----|
|---------------||----|
|-0--0--0-------||----|
|-0--0--0-------||----|


    S S S S S S E S S S S S S E   S S S S S S E S S S S S S E  8x
||------------------------------|------------------------------||
||o-------------5-------------5-|-------------5-------------5-o||
||--------------8-------------8-|-------------8-------------8--||
||-----
fde
-------------------------|------------------------------||
||o-----------------------------|-----------------------------o||
||--0-0-0-0-0-----0-0-0-0-0-----|-0-0-0-0-0-----0-0-0-0-0------||


   Outro
    E E E E E E E E   E E E E E E E E   E E E E E E E E   E Q.    E Q.       4x
||------------------|-----------------|-----------------|--------------------||
||o-----------------|-----------------|-----------------|-------------------o||
||------------------|-----------------|-----------------|--------------------||
||------------------|-----------------|-----------------|--------------------||
||o-0-0-0-0-0-0-0-0-|-0-0-0-0-0-0-0-0-|-0-0-0-0-0-0-0-0-|-------------------o||
||--0-0-0-0-0-0-0-0-|-0-0-0-0-0-0-0-0-|-0-0-0-0-0-0-0-0-|-3-5b6r==3-6b7r=====||


    E E E E E E E E   E E E E E E E E   E E E E E E E E   E Q.    E Q.       4x
||------------------|-----------------|-----------------|--------------------||
||o-------5-------5-|-------5-------5-|-------5-------5-|-------------------o||
||--------8-------8-|-------8-------8-|-------8-------8-|--------------------||
||------------------|-----------------|-----------------|--------------------||
||o-0-0-0---0-0-0---|-0-0-0---0-0-0---|-0-0-0---0-0-0---|-------------------o||
||--0-0-0---0-0-0---|-0-0-0---0-0-0---|-0-0-0---0-0-0---|-3-5b6r==3-6b7r=====||


  S S E E E  E E  E E   E E  E S S E E E S S
|---------------------|----------------------*|----|
|---------------------|----------------------*|----|
|---------------------|----------------------*|----|
|---------------------|-----10-------8-7-----*|----|
|-------8---12---10---|----------------------*|----|
|-0-0-0---0----0----0-|-8-0----8-8-7-----0-0-*|----|


Duration Legend
---------------
W - whole; H - half; Q - quarter; E - 8th; S - 16th; T - 32nd; X - 64th; a - acciaccatura
+ - note tied to previous; . - note dotted; .. - note double dotted
Uncapitalized letters represent notes that are staccato (1/2 duration)
Irregular groupings are notated above the duration line
Duration letters will always appear directly above the note/fret number it represents the
duration for.  Duration letters with no fret number below them represent rests.  Multi-
bar rests are notated in the form Wxn, where n is the number of bars to rest for.  Low
melody durations appear below the staff

Tablature Legend
----------------
 h   - hammer-on
 p   - pull-off
 b   - bend
 pb  - pre-bend
 r   - bend release (if no number after the r, then release immediately)
 /\  - slide into or out of (from/to "nowhere")
 s   - legato slide
 S   - shift slide
  - natural harmonic
[n]  - artificial harmonic
n(n) - tapped harmonic
 ~   - vibrato
 tr  - trill
 T   - tap
 TP  - trem. picking
 PM  - palm muting
\n/  - tremolo bar dip; n = amount to dip
 \n  - tremolo bar down
 n/  - tremolo bar up
/n\  - tremolo bar inverted dip
 =   - hold bend; also acts as connecting device for hammers/pulls
 <>  - volume swell (louder/softer)
 x   - on rhythm slash represents muted slash
 o   - on rhythm slash represents single note slash

Misc Legend
-----------
 |  - bar
||  - double bar
||o - repeat start
o|| - repeat end
*|  - double bar (ending)
 :  - bar (freetime)
 $  - Segno
 &  - Coda
Tempo markers -  = BPM(8/16=s8/s16), where s8 = swing 8ths, s16 = swing 16ths


***************************************************************************************
* Generated using Power Tab Editor by Brad Larsen - http://powertab.guitarnetwork.org *
***************************************************************************************

View Just Lyrics...

The hour of wreckoning draws near
Judgment day is here and gone
Sweetly she draws me into her arms
A liquid embrace to chase the day way.
Sedate Numb Deaf and Dumb
Stumbling into solitude.

A clouded judgment day is fueled.
Take me under your black wings
Mark my words and remember me.

So sweetly she shucks away at my time
So sweetly she draws me nigh
Closer and closer towards never ending sleep
Spin the bottle
Kiss only the bottle.

The dark mistress of many, beholden to none
Slips a ring of needles around your arm in an engagement
Eternal engagement
Never consummated.
Take me under your black wings
Mark my words and remember me.
Destroyer of senses.

So take as needed for the pain
Another gray morning dawns across an ashen sky.
My sweet demoness beckons me
Ever again and again and again and again.
The dark mistress of many, beholden to none
My sweet demoness beckons me
Ever again and again and again and again and again.
Take me under your black wings.
Jacked up on the taste of self-destruction

View Albums that This Song Appears On...

  • Freddy vs. Jason [Original Soundtrack]

    Genre: Stage & Screen Label: Roadrunner Records Song Duration on Album: 3:44 Album Duration: 01:15:59

    Release Date: August 12, 2003

    Moods: Bleak, Fractured, Gritty, Provocative, Volatile, Angst-Ridden, Fiery, Gloomy, Intense, Confrontational, Greasy, Hostile, Atmospheric, Harsh, Nihilistic, Brooding, Cold, Uncompromising, Brash, Swaggering, Thuggish

    Styles: Soundtracks, Alternative Metal, Heavy Metal, Rap-Metal, Grindcore, Alternative/Indie Rock, Post-Hardcore

Close panel

Help Rate This Tab by Voting Up or Down

Vote Up Vote Down
Rating: -1 +1

Other Songs Like This

x

Copyright © 2019