Song: Born To Die

Band: Leftover Crack

Rating: -1 +1 Views: 84



    

																				The whole song is standard A-D-E-D, ala Unity, Salvation, Wild Thing, etc.

Intro: 

      Clean part		          Distortion



    
      
e|----5----5----7----7-------------------------------------------------------|
B|----5----7----9----7-------------------------------------------------------|
G|----6----7----9----7--------------7----9----7------------------------------|
D|----7----7----9----7---------7----7----9----7------------------------------|
A|----7----5----7----5---------7----5----7----5------------------------------|
E|----5------------------------5---------------------------------------------|

Little riff:

e|---------------------------------------------------------------------------|
B|---------------------------------------------------------------------------|
G|----6-6-6-7-6----6-6-6-7-6----6-6-6-7-6----6-6-6-7-9-----------------------|
D|---------------------------------------------------------------------------|
A|---------------------------------------------------------------------------|
E|---------------------------------------------------------------------------|

e|---------------------------------------------------------------------------|
B|----6-6-6-7-6----6-6-6-7-6----6-6-6-7-6----6-7-9-6-7-----------------------|
G|---------------------------------------------------------------------------|
D|---------------------------------------------------------------------------|
A|---------------------------------------------------------------------------|
E|---------------------------------------------------------------------------|

Ska part:   Mute downstokes.

e|----x----5----x----5----x----6----x----5-----------------------------------|
B|----x----5----x----7----x----9----x----7-----------------------------------|
G|----x----6----x----7----x----9----x----7-----------------------------------|
D|----x----7----x----7----x----9----x----7-----------------------------------|
A|---------------------------------------------------------------------------|
E|---------------------------------------------------------------------------|

Big riff:

e|---------------------------------------------------------------------------|
B|---------------------------------------------------------------------------|
G|----\6-6-6-7-9----6-6-6-7-9----6-6-6-7-9----9b(11)-9-7-9-7-----------------|
D|---------------------------------------------------------------------------|
A|---------------------------------------------------------------------------|
E|---------------------------------------------------------------------------|

e|---------------------------------------------------------------------------|
B|---------------------------------------------------------------------------|
G|----6-6-6-7-9----6-6-6-7-9----6h9-6h9-6h9-6h9-6h9-6h9-6h9-6h9--------------|
D|---------------------------------------------------------------------------|
A|---------------------------------------------------------------------------|
E|---------------------------------------------------------------------------|

Heavy end part:

e|---------------------------------------------------------------------------|
B|---------------------------------------------------------------------------|
G|--------7----5----7--------------------------------------------------------|
D|---7----7----7----7--------------------------------------------------------|
A|---7----5----7----5--------------------------------------------------------|
E|---5-----------------------------------------------------------------------|


| \  slide down
| h  hammer-on
| x  Mute note
| 5b(7) Bend 5 up to 7

Close panel

Help Rate This Tab by Voting Up or Down

Vote Up Vote Down
Rating: -1 +1

Other Songs Like This

x

Copyright © 2019