Song: Broken

Band: Lifehouse
Composed By: Jason Wade

Rating: -1 +1 Views: 137



    

																				-------------------------------------------------------------------------------
			     Broken - Lifehouse
-------------------------------------------------------------------------------
Tabbed by: addicted2musik
Email: the_chimi_of_the_changa@yahoo.com

Tuning: standard

I only tabbed out the 1st guitar part. Its finger picked. Use your thumb on the bass E 
A strings (play those notes quietly) and let the notes on the D and G strings ring out.



    

Intro:
e|-------------------------------------------------------------------------|
B|-------------------------------------------------------------------------|
G|-----------------2-------------------------------2-----------------------|
D|-2-------------------------------2---------------------------------------|
A|-----------------0-0-0-0-0-0-0-0-----------------0-0-0-0-0-0-0-0---------|
E|-0-0-0-0-0-0-0-0-----------------0-0-0-0-0-0-0-0-------------------------|

e|-------------------------------------------------------------------------|
B|-------------------------------------------------------------------------|
G|-----------------2-------------------------------------------------------|
D|-2-------------------------------1---------------0-----------------------|
A|-----------------0-0-0-0-0-0-0-0-----------------------------------------|
E|-0-0-0-0-0-0-0-0-----------------0-0-0-0-0-0-0-0-0-0-0-0-0-0-0-0---------|

Verse:
e|-------------------------------------------------------------------------|
B|-------------------------------------------------------------------------|
G|--------------------2-------------------------------2--------------------|
D|----2-------------------------------2------------------------------------|
A|--------------------0-0-0-0-0-0-0-0-----------------0-0-0-0-0-0-0-0------|
E|----0-0-0-0-0-0-0-0-----------------0-0-0-0-0-0-0-0----------------------|
The broken clock is a comfort    it helps me sleep tonight

e|-------------------------------------------------------------------------|
B|-------------------------------------------------------------------------|
G|-----------------2-------------------------------------------------------|
D|-2-------------------------------1---------------0-----------------------|
A|-----------------0-0-0-0-0-0-0-0-----------------------------------------|
E|-0-0-0-0-0-0-0-0-----------------0-0-0-0-0-0-0-0-0-0-0-0-0-0-0-0---------|
maybe it can stop tomorrow   from stealing all my time

e|-------------------------------------------------------------------------|
B|-------------------------------------------------------------------------|
G|------------------2-------------------------------2----------------------|
D|--2-------------------------------2--------------------------------------|
A|------------------0-0-0-0-0-0-0-0-----------------0-0-0-0-0-0-0-0--------|
E|--0-0-0-0-0-0-0-0-----------------0-0-0-0-0-0-0-0------------------------|
and I am here still waiting  though i still have my doubts

e|-------------------------------------------------------------------------|
B|-------------------------------------------------------------------------|
G|------------------2------------------------------------------------------|
D|--2-------------------------------1---------------0----------------------|
A|------------------0-0-0-0-0-0-0-0----------------------------------------|
E|--0-0-0-0-0-0-0-0-----------------0-0-0-0-0-0-0-0-0-0-0-0-0-0-0-0--------|
  i am damaged at best  like you've already figured out

Chorus:
e|-------------------------------------------------------------------------|
B|-------------------------------------------------------------------------|
G|----------2-------2-------2-------2-------2---------------1--------------|
D|-------------------------------------------------------------------------|
A|----------0-0-0-0-0-0-0-0-0-0-0-0-0-0-0-0--------------------------------|
E|------------------------------------------0-0-0-0-0-0-0-0-0-0-0-0-0-0-0-0|
I'm falling apart             I'm barely brea  -      -    thing   with  a

e|-------------------------------------------------------------------------|
B|-------------------------------------------------------------------------|
G|------2-------2-------2-------2-------2---------------1------------------|
D|-------------------------------------------------------------------------|
A|------0-0-0-0-0-0-0-0-0-0-0-0-0-0-0-0------------------------------------|
E|--------------------------------------0-0-0-0-0-0-0-0-0-0-0-0-0-0-0-0----|
broken heart               that's still bea  -      -   ting        in the

e|-----------------------------------------------------------------------|
B|-----------------------------------------------------------------------|
G|--2-------2-------2-------2-------2---------------1--------------------|
D|-----------------------------------------------------------------------|
A|--0-0-0-0-0-0-0-0-0-0-0-0-0-0-0-0--------------------------------------|
E|----------------------------------0-0-0-0-0-0-0-0-0-0-0-0-0-0-0-0------|
  pain                    there is heal  -      -  ing     in your

e|--------------------------------------------------------------------|
B|--------------------------------------------------------------------|
G|--2-------2-------2-------2-------2---------------1-----------------|
D|--------------------------------------------------------------------|
A|--0-0-0-0-0-0-0-0-0-0-0-0-0-0-0-0-----------------------------------|
E|----------------------------------0-0-0-0-0-0-0-0-0-0-0-0-0-0-0-0---|
  name                      i find mean  -       - ing   so I'm holding

e|-------------------------------------------------------------------------|
B|-------------------------------------------------------------------------|
G|-----------------2-------------------------------2-----------------------|
D|-2-------------------------------2---------------------------------------|
A|-----------------0-0-0-0-0-0-0-0-----------------0-0-0-0-0-0-0-0---------|
E|-0-0-0-0-0-0-0-0-----------------0-0-0-0-0-0-0-0-------------------------|
  on                      holding on                      holding

e|-------------------------------------------------------------------------|
B|-------------------------------------------------------------------------|
G|-----------------2-------------------------------------------------------|
D|-2-------------------------------1---------------0-----------------------|
A|-----------------0-0-0-0-0-0-0-0-----------------------------------------|
E|-0-0-0-0-0-0-0-0-----------------0-0-0-0-0-0-0-0-0-0-0-0-0-0-0-0---------|
  on                  I'm barely     holding on to you

Verse 2: same as Verse 1
The broken locks were a warning
you got inside my head
I tried my best to be guarded
I'm an open book instead
And I still see your reflection
inside of my eyes
That are looking for purpose
they're still looking for life

Play Chorus

Bridge: (I haven't figured this part out yet, you might just play the verse again but 
not sure...)
I'm hanging on another day
just to see what you would throw my way
and I'm hanging on to the words you say
you said that I will, will be okay.

Verse 3:
The broken lights on the freeway
left me here alone
I may have lost my way now
Haven't forgotten my way home

Play Chorus

Outro:
e|-------------------------------------------------------------------------|
B|-------------------------------------------------------------------------|
G|-----------------2-------------------------------2-----------------------|
D|-2-------------------------------2---------------------------------------|
A|-----------------0-0-0-0-0-0-0-0-----------------0-0-0-0-0-0-0-0---------|
E|-0-0-0-0-0-0-0-0-----------------0-0-0-0-0-0-0-0-------------------------|

e|-------------------------------------------------------------------------|
B|-------------------------------------------------------------------------|
G|-----------------2-------------------------------------------------------|
D|-2-------------------------------1-----------------0---------------------|
A|-----------------0-0-0-0-0-0-0-0-----------------------------------------|
E|-0-0-0-0-0-0-0-0-----------------0-0-0-0-0-0-0-0---0---------------------|

| /  slide up
| \  slide down
| h  hammer-on
| p  pull-off
| ~  vibrato
| +  harmonic
| x  Mute note
===============================================================================

View Just Lyrics...

The broken clock is a comfort
It let's me sleep tonight
Maybe it can stop tomorrow
From stealing all my time
I am here still waiting
I still have my doubts
I am damaged at best
Like you've already figured out

I'm falling apart
I'm barely breathing
With a broken heart
That's still beating
In the pain
There is healing
In your name
I find meaning
So I'm holding on, I'm holdin' on, I'm holdin' on
Barely holding on to you

The broken locks were a warning
You got inside my head
Tried my best to be guarded
I'm an open book instead
I still see your reflection
Inside my eyes
That are looking for purpose
There still looking for life

I'm falling apart
I'm barely breathing
With a broken heart
That's still beating
In the pain (In the pain)
Is there healing
In your name (In your name)
I find meaning
So I'm holding on (I'm still holdin'), I'm holdin' on
(I'm still holdin'), I'm holdin' on (I'm still holdin')
I'm barely holding on to you

Hanging on another day
Just to see what you will throw my way
And I'm hanging on to the words you say
You said that I will, will be OK
Broken light on the freeway
Left me here alone
I may have lost my way now
Haven't forgotten my way home

I'm falling apart
I'm barely breathing
With a broken heart
That's still beating
In the pain (In the pain)
There is healing
In your name (In your name)
I find meaning
So I'm holding on (I'm still holdin'), I'm holdin' on
(I'm still holdin' on), I'm holdin' on
(I'm still holdin')
Barely holding on to you
I'm holding on (I'm still holdin'), I'm holdin' on
(I'm still holdin' on), I'm holdin' on
(I'm still holdin')
Barley holding on to you

View Albums that This Song Appears On...

  • Who We Are

    Genre: Pop/Rock Label: Universal/Geffen Song Duration on Album: 4:46 Album Duration: 46:18

    Release Date: June 19, 2007

    Moods: Confident, Earnest, Passionate, Reflective, Searching, Slick, Wistful, Yearning, Angst-Ridden, Bittersweet, Cathartic, Dramatic, Gutsy, Intense, Melancholy, Optimistic, Plaintive, Relaxed, Romantic, Rousing, Sentimental, Uplifting, Urgent

    Styles: Adult Alternative Pop/Rock, Alternative/Indie Rock, Post-Grunge

    Themes: Empowering, Feeling Blue, Heartache, In Love, Introspection, Reflection, Regret, Solitude

  • Broken

    Genre: Pop/Rock Label: Geffen Song Duration on Album: 4:15 Album Duration: 4:15

    Release Date: July 8, 2008

  • Totally Chick Flicks

    Label: Universal TV Campaign Division Song Duration on Album: 4:46

    Release Date: September 29, 2009

    Styles: Pop

Close panel

Help Rate This Tab by Voting Up or Down

Vote Up Vote Down
Rating: -1 +1

Other Songs Like This

x

Copyright © 2019