Song: You Are Good

Band: Lincoln Brewster

Rating: -1 +1 Views: 201

YOU ARE GOOD - LINCOLN BREWSTER

Tabbed by: Phil Viebeck
Email: philip.viebeck@gmail.com



    


INTRO




    

He repeats this again, but the second time through he changes the picking and strumming 
slightly.

e|----------------------------------------------------------|
B|--8------8---------8-------11--------11-------10--10------|
G|--7--7-----7---------7-----10--10------10-----10-----10---|     x2
D|-10----10----10--9---------12-----12-----12---10----------|
A|----------------------------------------------------------|
E|----------------------------------------------------------|


LEAD INTRO

Again, the second time through, he changes it up a bit. Listen through a few times and 
easy to imitate.

e|-12--10--12--13--12--10------10----10----10-----------|
B|-13----------13------11---11----11----11----11--------|
G|------------------------------------------------\-----|
D|------------------------------------------------------| \
A|------------------------------------------------------|   \
E|------------------------------------------------------|     \
                                                             x2
e|-12--10--12--13--12-----------------------------------|     /
B|-13----------13------13----13----13----13-------------|   /
G|------------------------10----10----10----10----------| /
D|------------------------------------------------------|
A|------------------------------------------------------|
E|------------------------------------------------------|


VERSE

Ok, this is not how he plays it, but it fits, sounds good, and partially correct.


"Lord you are good...."

e|-------------------------------------------------------3-----------|
B|--------3--------------3--------3------3--------6--6-----6---------|
G|-5--5-----5--------5-----5------4--4-----4------5----5-----5-------| x2
D|-5----5-----5--------5-----5----5----5-----5-----------------------|
A|-------------------------------------------------------------------|
E|-----------------5-------------------------------------------------|


BRIDGE

Same idea as the verse. What he plays sounds a lot like this, but this isn't exactly what he plays.

"People from every nation...."


e|-5------5--7----------8-------8--10--10--10--10----------------|
B|-6------6--8----------9-------9--11--11--11--11----------------|
G|-5------5--7----------8-------8--10--10--10--10----------------|
D|---------------------------------------------------------------|
A|---------------------------------------------------------------|
E|---------------------------------------------------------------|


CHORUS

Same idea. Sounds good, sounds close to what he does.
Take the Main Hand Postion and pluck around on it.

"We worship You......."


e|--10------------10-------------8-------------8----------------|
B|--13------------11-------------11------------10---------------|
G|--12------------12-------------10------------10---------------|
D|--------------------------------------------------------------|
A|--------------------------------------------------------------|
E|--------------------------------------------------------------|


e|--10------------10-------------8------------10----------------|
B|--13------------11-------------9------------11----------------|
G|--12------------12-------------8------------10----------------|
D|--------------------------------------------------------------|
A|--------------------------------------------------------------|
E|--------------------------------------------------------------|


BREAKDOWN

e|--------------------------------------------------------------------|
B|------------------------------11-11--10-10--11-11---11---11-10-8----|
G|------------8----8---10-------8--8---8--8---8--8----8----8--8--8----|
D|-10---10----8----8---10---------------------------------------------|
A|-10---10----6----6----8---------------------------------------------|
E|--8----8------------------------------------------------------------|


e|--------------------------------------------------------------------|
B|------------------------------11------------------------------------|
G|---------------------10---------12-11-10-8---10---8~----------------|
D|-10---10----8----8---10--------------------10--10----10-8-----------|
A|-10---10----8----8----8-----------------------------------10-8------|
E|--8----8----6----6----------------------------------------------11~-|

The rest of the break down is just the main chords. And the rest of the song 
repeats these sections.

Close panel

Help Rate This Tab by Voting Up or Down

Vote Up Vote Down
Rating: -1 +1

Other Songs Like This

x

Copyright © 2017