Song: The Night We Met

Band: Lord Huron
Composed By: Jack Bulterman, Rob de Nijs

Rating: -0 +0 Views: 107

There is another guitar that cuts in at the first chorus and plays the chords.  This tab 
is strictly melody.

(Melody slowly fades in at around 0:15)



    

INTRO:

Ooooo oooo ooo
Ooooo oooo ooo

Ooooooooooooooooooooo oooo ooooooooooooooooooooooooooo
e|--------------------------|-------------------------|
B|----------10--------------|-------------------------|
G|-------11----11--------11-|-------6-----------6-----|
D|----11---------11---11----|-----7---7-------7--7----|
A|--9-----------------------|---7-------7---7------7--|
E|------------------9-------|-5-----------5-----------|



    

Oooooooooooooooooo ooooooooo ooooooooooooooooooo
e|----------------------------------------------|
B|--------------------------7-----------7-------|
G|-------2----------------7---7-------7---7-----|
D|-----4---4--------7---7-------7---7-------7---|
A|---4-------4----7---5-----------5-------------|
E|-2------------5-------------------------------|

VERSE:
I am not the only traveler
e|--------------------------|-------------------------|
B|----------10--------------|-------------------------|
G|-------11----11--------11-|-------6-----------6-----|
D|----11---------11---11----|-----7---7-------7--7----|
A|--9-----------------------|---7-------7---7------7--|
E|------------------9-------|-5-----------5-----------|

who has not repaid his debt
e|----------------------------------------------|
B|--------------------------7-----------7-------|
G|-------2----------------7---7-------7---7-----|
D|-----4---4--------7---7-------7---7-------7---|
A|---4-------4----7---5-----------5-------------|
E|-2------------5-------------------------------|

Ive been searchin for a trail to follow again
e|--------------------------|-------------------------|
B|----------10--------------|-------------------------|
G|-------11----11--------11-|-------6-----------6-----|
D|----11---------11---11----|-----7---7-------7--7----|
A|--9-----------------------|---7-------7---7------7--|
E|------------------9-------|-5-----------5-----------|

Take me back to the night we met
e|----------------------------------------------|
B|--------------------------7-----------7-------|
G|-------2----------------7---7-------7---7-----|
D|-----4---4--------7---7-------7---7-------7---|
A|---4-------4----7---5-----------5-------------|
E|-2------------5-------------------------------|

VERSE:
And then I can tell myself
e|----------------------------------------------|
B|--------------------------7-----------7-------|
G|-------2----------------7---7-------7---7-----|
D|-----4---4--------7---7-------7---7-------7---|
A|---4-------4----7---5-----------5-------------|
E|-2------------5-------------------------------|

What the hell Im supposed to do
e|----------------------------------------------|
B|--------------------------7-----------7-------|
G|-------2----------------7---7-------7---7-----|
D|-----4---4--------7---7-------7---7-------7---|
A|---4-------4----7---5-----------5-------------|
E|-2------------5-------------------------------|

And then I can tell myself
e|----------------------------------------------|
B|--------------------------7-----------7-------|
G|-------2----------------7---7-------7---7-----|
D|-----4---4--------7---7-------7---7-------7---|
A|---4-------4----7---5-----------5-------------|
E|-2------------5-------------------------------|

Not to ride along with you
e|----------------------------------------------|
B|--------------------------7-----------7-------|
G|-------2----------------7---7-------7---7-----|
D|-----4---4--------7---7-------7---7-------7---|
A|---4-------4----7---5-----------5-------------|
E|-2------------5-------------------------------|

CHORUS:
I had all and then most of you, some and now none of you
e|-------------------------------------------|-------------------------|
B|-------------------------------------------|-------------------------|
G|-------------------------------------------|-------6-----------6-----|
D|-------------------------------------------|-----7---7-------7--7----|
A|-------------------------------------------|---7-------7---7------7--|
E|-------------------------------------------|-5-----------5-----------|

Take me back to the night we met
e|----------------------------------------------|
B|--------------------------7-----------7-------|
G|-------2----------------7---7-------7---7-----|
D|-----4---4--------7---7-------7---7-------7---|
A|---4-------4----7---5-----------5-------------|
E|-2------------5-------------------------------|

I dont know what Im supposed to do, haunted by the ghost of you
e|--------------------------|-------------------------|
B|----------10--------------|-------------------------|
G|-------11----11--------11-|-------6-----------6-----|
D|----11---------11---11----|-----7---7-------7--7----|
A|--9-----------------------|---7-------7---7------7--|
E|------------------9-------|-5-----------5-----------|

Oh take me back to the night we met
e|----------------------------------------------|
B|--------------------------7-----------7-------|
G|-------2----------------7---7-------7---7-----|
D|-----4---4--------7---7-------7---7-------7---|
A|---4-------4----7---5-----------5-------------|
E|-2------------5-------------------------------|

VERSE:
When the night was full of terror
e|----------------------------------------------|
B|--------------------------7-----------7-------|
G|-------2----------------7---7-------7---7-----|
D|-----4---4--------7---7-------7---7-------7---|
A|---4-------4----7---5-----------5-------------|
E|-2------------5-------------------------------|

And your eyes were filled with tears
e|----------------------------------------------|
B|--------------------------7-----------7-------|
G|-------2----------------7---7-------7---7-----|
D|-----4---4--------7---7-------7---7-------7---|
A|---4-------4----7---5-----------5-------------|
E|-2------------5-------------------------------|

When you had not touched me yet
e|----------------------------------------------|
B|--------------------------7-----------7-------|
G|-------2----------------7---7-------7---7-----|
D|-----4---4--------7---7-------7---7-------7---|
A|---4-------4----7---5-----------5-------------|
E|-2------------5-------------------------------|

Oh take me back to the night we met
e|----------------------------------------------|
B|--------------------------7-----------7-------|
G|-------2----------------7---7-------7---7-----|
D|-----4---4--------7---7-------7---7-------7---|
A|---4-------4----7---5-----------5-------------|
E|-2------------5-------------------------------|

CHORUS:
I had all and then most of you, some and now none of you
e|--------------------------|-------------------------|
B|----------10--------------|-------------------------|
G|-------11----11--------11-|-------6-----------6-----|
D|----11---------11---11----|-----7---7-------7--7----|
A|--9-----------------------|---7-------7---7------7--|
E|------------------9-------|-5-----------5-----------|

Take me back to the night we met
e|----------------------------------------------|
B|--------------------------7-----------7-------|
G|-------2----------------7---7-------7---7-----|
D|-----4---4--------7---7-------7---7-------7---|
A|---4-------4----7---5-----------5-------------|
E|-2------------5-------------------------------|

I dont know what Im supposed to do, haunted by the ghost of you
e|--------------------------|-------------------------|
B|----------10--------------|-------------------------|
G|-------11----11--------11-|-------6-----------6-----|
D|----11---------11---11----|-----7---7-------7--7----|
A|--9-----------------------|---7-------7---7------7--|
E|------------------9-------|-5-----------5-----------|

Take me back to the night we met
e|----------------------------------------------|
B|--------------------------7-----------7-------|
G|-------2----------------7---7-------7---7-----|
D|-----4---4--------7---7-------7---7-------7---|
A|---4-------4----7---5-----------5-------------|
E|-2------------5-------------------------------|

OUTRO:
e|----------------------------------------------|
B|--------------------------7-----------7-------|
G|-------2----------------7---7-------7---7-----|
D|-----4---4--------7---7-------7---7-------7---|
A|---4-------4----7---5-----------5-------------|
E|-2------------5-------------------------------|
e|----------------------------------------------|
B|--------------------------7-----------7-------|
G|-------2----------------7---7-------7---7-----|
D|-----4---4--------7---7-------7---7-------7---|
A|---4-------4----7---5-----------5-------------|
E|-2------------5-------------------------------|

View Just Lyrics...

I am not the only traveler
Who has not repaid his debt
I’ve been searching for a trail to follow again
Take me back to the night we met

And then I can tell myself
What the hell I’m supposed to do
And then I can tell myself
Not to ride along with you

I had all and then most of you
Some and now none of you
Take me back to the night we met
I don’t know what I’m supposed to do
Haunted by the ghost of you
Take me back to the night we met

When the night was full of terrors
And your eyes were filled with tears
When you had not touched me yet
Take me back to the night we met

I had all and then most of you
Some and now none of you
Take me back to the night we met
I don’t know what I’m supposed to do
Haunted by the ghost of you
Take me back to the night we met

View Albums that This Song Appears On...

  • Strange Trails

    Genre: Pop/Rock Label: Iamsound Song Duration on Album: 3:28 Album Duration: 55:39

    Release Date: April 6, 2015

    Moods: Freewheeling, Laid-Back/Mellow, Reflective, Amiable/Good-Natured, Cheerful, Exuberant, Fun, Light, Organic, Playful, Smooth, Soothing, Warm, Wistful, Carefree, Earnest, Lively, Pastoral, Summery, Agreeable, Energetic, Searching

    Styles: Alternative/Indie Rock, Indie Rock, Indie Folk

    Themes: The Great Outdoors, Introspection, Long Walk, Reflection, Relaxation, Summer

Close panel

Help Rate This Tab by Voting Up or Down

Vote Up Vote Down
Rating: -0 +0

Other Songs Like This

x

Copyright © 2017