Song: Jesus Bass

Band: Luna Sea
Composed By: Willie Colón

Rating: -0 +0 Views: 106



    

																				---------------------------------------------------------------------------
			     Jesus - Luna Sea
----------------------------------------------------------------------------

Tabbed By :Atyil (Me!)
e-mail: Blackberry-Heart-Mechansim@hotmail.com

Tuning: Standard
Intro (2x)
(Only Come In at 00:21)
G|-------------------------------------------------------------------------|
D|-------------------------------------------------------------------------|
A|-------------------7-7-7-7-7-7-7-7-4-4-4-4-4-4-4-4-----------------------|
E|-4~-7-6-5-4~-7-6-5-------------------------------4-4-4-4-4-4-4-4---------|



    


Verse (2x)
G|-------------------------------------------------------------------------|
D|-------------------------------------------------------------------------|
A|-------------------------------------------------------------------------|
E|-4~-7-6-5-4~-7-6-5-0-0-0-0-2-2-2-2-4-4-4-4-4-4-4-------------------------|


Chorus
G|----------------------------------------------------------------------------------------|
D|----------------------------------------------------------------------------------------|
A|-6-6-6-6-6-6-6-6-4-4-4-4-4-4-4-4--6-6-6-6-2-2-2-2-2-2-2-2-(2nd Time = 2-2-2-2-4-4-4-4)--|
E|---------------------------------7-7-7-7------------------------------------------------|

Intro 1x

Verse

Pre-Chorus
G|-------------------------------------------------------------------------|
D|-------------------------------------------------------------------------|
A|-------------------------------------------------------------------------|
E|-0-2-4-5-----------------------------------------------------------------|

Chorus

Solo
G|-------------------------------------------------------------------------|
D|-------------------------------------------------------------------------|
A|-------------------------------------------------------------------------|
E|-4~-7-6-5-4~-7-6-5-4~-7-6-5-4-12-12-11-10-9------------------------------|

Guitar Solo = Chorus 2x

Chorus 4X

Outro = Intro 4X

Hope you Like my tab!! If you Have Questions,Comments,Want To Chat or Make A
Request, E-mail/MSN me!!
Atyil

| /  slide up
| \  slide down
| h  hammer-on
| p  pull-off
| ~  vibrato
| +  harmonic
| x  Mute note
============================================================================

View Albums that This Song Appears On...

  • Eden

    Label: Universal Distribution

    Release Date: December 26, 2005

  • Complete Best

    Genre: Pop/Rock Label: Sweet Child Song Duration on Album: 4:23 Album Duration: 02:18:16

    Release Date: 2008

Close panel

Help Rate This Tab by Voting Up or Down

Vote Up Vote Down
Rating: -0 +0

Other Songs Like This

x

Copyright © 2017