Song: Enemy

Band: Madside
Composed By: Madside

Rating: -1 +1 Views: 47



    

																				Intro:

D-----------------------------------------------------|
A-----------------------------------------------------|
F------44-----------44-----------44-------------44555-|
C---------555----------555----------555---------------| (2x w\dist)
G-----------------------------------------------------|
C-777----------777----------333-----------333---------|

Verse:



    

|-----------------------------------------------------|
|-----------------------------------------------------|
|-----44---------44---------44---------44555----------| (2x Open,
|-777---555--777---555--333---555--333----------------| 2x palm muted)
|-777--------777--------333--------333----------------|
|-777--------777--------333--------333----------------|

Chorus:

|---------------------------------------------------------|
|---------------------------------------------------------|
|----------------------------------------1212121212121212-|
|-7-7--10-10--5-5-5--333--7-7--10-10--5---x-x-x-x-x-x-x-x-|
|-7-7--10-10--5-5-5--333--7-7--10-10--5--1010101010101010-|
|-7-7--10-10--5-5-5--333--7-7--10-10--5-------------------|

|---------------------------------------------------------|
|------------------------Do this twice 2nd ---------------|
|-------------------------(9--7--9--5)-time---------------|
|-7-7--10-10--5-5-5--333--(7--5--7--3)-through------------|
|-7-7--10-10--5-5-5--333--(7--5--7--3)--------------------|
|-7-7--10-10--5-5-5--333--(7--5--7--3)--------------------|

Bridge:

|------------------------------------------------------------|
|------------------------------------------------------------|
|---------------------------------------999-10101010---------|
|-55555--2-2--2-33333-222--55555--2-2---XXX-X-X-X-X----------|
|-55555--2-2--2-33333-222--55555--2-2---777-8-8-8-8----------|
|-55555--2-2--2-33333-222--55555--2-2------------------------|

Over dub on Bridge:

|-1515151515-------| (Listen to strumming pattern)
|-x-x-x-x-x--------|
|-1212121212-------|
|------------------|
|------------------|
|------------------|

Pattern: Intro
         Verse
         Chorus
         Verse
         Chorus
         Bridge & Chorus ending
         Chorus

View Albums that This Song Appears On...

  • Madside

    Genre: Pop/Rock Label: Sixthman Records / Evolution Records Song Duration on Album: 3:46 Album Duration: 36:47

    Release Date: November 9, 2004

Close panel

Help Rate This Tab by Voting Up or Down

Vote Up Vote Down
Rating: -1 +1

Other Songs Like This

x

Copyright © 2019