Song: Conxuro

Band: Mago De Oz

Rating: -1 +1 Views: 104



    

																				ENTRA LA VOZ SATANONA
Y AL (1:25)
CON DISTORCION
RIFF1
1|----------------------------------------|
2|----------------------------------------|
3|----------------------------------------|
4|-7-7---7-7---7-7---7-7---7-7------------|
5|-5-5---5-5---5-5---5-5---5-5------------|
6|----------------------------------------|

RIFF 2
(1:36) VARIAS VECES
1|----------------------------------------|
2|----------------------------------------|
3|----------------------------------------|
4|-7-----7---7-----7---7-----7---7--------|
5|-5-5-5-5-5-5-5-5-5-5-5-5-5-5-5-5--------|
6|----------------------------------------|
     PM.  PM   PM.

LUEGO OTRA VEZ EL RIFF1 Y SE EMPIEZA A OIR EL SOLO DE GUITARRA EN EL
FONDO
1|----------------------------------------|
2|----------------------------------------|
3|----------------------------------------|
4|-7-7---7-7---7-7---7-7---7-7---7-7------|
5|-5-5---5-5---5-5---5-5---5-5---5-5------|
6|----------------------------------------|



    

1|----------------------------------------|
2|----------------------------------------|
3|----------------------------------------|
4|-7-----7---7-----7---7-----7---7--------|
5|-5-5-5-5-5-5-5-5-5-5-5-5-5-5-5-5--------|
6|----------------------------------------|

1|----------------------------------------|
2|----------------------------------------|
3|----------------------------------------|
4|-7-----7---7-----7---7-----7---7--------|
5|-5-5-5-5-5-5-5-5-5-5-5-5-5-5-5-5--------|
6|----------------------------------------|

1|----------------------------------------|
2|----------------------------------------|
3|----------------------------------------|
4|-7-----7---7-----7---7-----7---7--------|
5|-5-5-5-5-5-5-5-5-5-5-5-5-5-5-5-5--------|
6|----------------------------------------|
Y ESTO HASTA QUE SE ACABE LA CANCION

LETRA:

Mouchos, coruxas, sapos e bruxas. 
Demos, trasnos e dianhos, espritos das nevoadas veigas. 
Corvos, pintigas e meigas, feitizos das mencinheiras. 
Pobres canhotas furadas, fogar dos vermes e alimanhas. 
Lume das Santas Companhas, mal de ollo, negros meigallos, cheiro dos
mortos, tronos e raios. 
Oubeo do can, pregon da morte, foucinho do satiro e pe do coello. 
Pecadora lingua da mala muller casada cun home vello. 
Averno de Satan e Belcebu, lume dos cadavres ardentes, corpos mutilados
dos indecentes, peidos dos infernales cus, muxido da mar embravescida. 
Barriga inutil da muller solteira, falar dos gatos que andan a
xaneira, guedella porra da cabra mal parida. 
Con este fol levantarei as chamas deste lume que asemella ao do
inferno, e fuxiran as bruxas acabalo das sas escobas, indose ba

Close panel

Help Rate This Tab by Voting Up or Down

Vote Up Vote Down
Rating: -1 +1

Other Songs Like This

x

Copyright © 2019