Song: Stupid For You

Band: Marie Digby

Rating: -1 +1 Views: 147



    

																				      Stupid for You - Marie Digby
tabbed- carpus
All mostly bar chords. Everything should be correct other than the bridge. tabbed 
using guitar pro.
Enjoy.                                           
     E.  S E.  E.  E  E  E        E.  S E  Q    Q    E  
E||--5---5-----5---5--5--5---||---5---5----5----5----5--|
B||--7---7-----7---7--7--7---||---7---7----7----7----7--|
G||--7---7-----7---7--7--7--*||*--7---7----7----7----7--|
D||--7---7-----7---7--7--7--*||*--7---7----7----7----7--|
A||--5---5-----5---5--5--5---||---5---5----5----5----5--|
E||--5---5-----5---5--5--5---||---5---5----5----5----5--|


  E.  S E  Q    E  E  E     E.  S E  Q    E  E  E     E.  S E  Q    Q    E    
--5---5----5----5--5--5--|--3---3----3----3--3--3--|--3---3----3----3----3---||
--7---7----7----7--7--7--|--3---3----3----3--3--3--|--3---3----3----3----3---||
--5---5----5----5--5--5--|--4---4----4----4--4--4--|--3---3----3----3----3--*||
--7---7----7----7--7--7--|--5---5----5----5--5--5--|--5---5----5----5----5--*||
--5---5----5----5--5--5--|--5---5----5----5--5--5--|--5---5----5----5----5---||
--5---5----5----5--5--5--|--3---3----3----3--3--3--|--3---3----3----3----3---||



    


   E.  S E  Q    E  E  E     E.  S E  Q    E  E  E     E.  S E  Q    E  E  E  
---0---0----0----0--0--0--|--2---2----2----2--2--2--|--3---3----3----3--3--3--|
---0---0----0----0--0--0--|--2---2----2----2--2--2--|--3---3----3----3--3--3--|
*--0---0----0----0--0--0--|--2---2----2----2--2--2--|--4---4----4----4--4--4--|
*--2---2----2----2--2--2--|--4---4----4----4--4--4--|--5---5----5----5--5--5--|
---2---2----2----2--2--2--|--4---4----4----4--4--4--|--5---5----5----5--5--5--|
---0---0----0----0--0--0--|--2---2----2----2--2--2--|--3---3----3----3--3--3--|

1st ending                |   2nd                   |
  E.  S E  Q    Q    E       E.  S E  Q    Q    E       E.  S E  Q    Q    E  
--5---5----5----5----5---||--0---0----0----0----0--||---5---5----5----5----5--|
--5---5----5----5----5---||--2---2----2----2----2--||---7---7----7----7----7--|
--6---6----6----6----6--*||--0---0----0----0----0--||*--7---7----7----7----7--|
--7---7----7----7----7--*||--2---2----2----2----2--||*--7---7----7----7----7--|
--7---7----7----7----7---||--0---0----0----0----0--||---5---5----5----5----5--|
--5---5----5----5----5---||--0---0----0----0----0--||---5---5----5----5----5--|


  E.  S E  Q    E  E  E     E.  S E  Q    E  E  E     E.  S E  Q    Q    E    
--5---5----5----5--5--5--|--3---3----3----3--3--3--|--3---3----3----3----3---||
--7---7----7----7--7--7--|--3---3----3----3--3--3--|--3---3----3----3----3---||
--5---5----5----5--5--5--|--4---4----4----4--4--4--|--3---3----3----3----3--*||
--7---7----7----7--7--7--|--5---5----5----5--5--5--|--5---5----5----5----5--*||
--5---5----5----5--5--5--|--5---5----5----5--5--5--|--5---5----5----5----5---||
--5---5----5----5--5--5--|--3---3----3----3--3--3--|--3---3----3----3----3---||


   E.  S E  Q    E  E  E     E.  S E  Q    E  E  E     E.  S E  Q    E  E  E  
---0---0----0----0--0--0--|--2---2----2----2--2--2--|--3---3----3----3--3--3--|
---0---0----0----0--0--0--|--2---2----2----2--2--2--|--3---3----3----3--3--3--|
*--0---0----0----0--0--0--|--2---2----2----2--2--2--|--4---4----4----4--4--4--|
*--2---2----2----2--2--2--|--4---4----4----4--4--4--|--5---5----5----5--5--5--|
---2---2----2----2--2--2--|--4---4----4----4--4--4--|--5---5----5----5--5--5--|
---0---0----0----0--0--0--|--2---2----2----2--2--2--|--3---3----3----3--3--3--|


  E.  S E  Q    Q    E       E.  S E  Q    Q    E       E.  S E  Q    Q    E  
--5---5----5----5----5---||--0---0----0----0----0--||---5---5----5----5----5--|
--5---5----5----5----5---||--2---2----2----2----2--||---7---7----7----7----7--|
--6---6----6----6----6--*||--0---0----0----0----0--||*--7---7----7----7----7--|
--7---7----7----7----7--*||--2---2----2----2----2--||*--7---7----7----7----7--|
--7---7----7----7----7---||--0---0----0----0----0--||---5---5----5----5----5--|
--5---5----5----5----5---||--0---0----0----0----0--||---5---5----5----5----5--|


  E.  S E  Q    E  E  E     E.  S E  Q    E  E  E     E.  S E  Q    Q    E    
--5---5----5----5--5--5--|--3---3----3----3--3--3--|--3---3----3----3----3---||
--7---7----7----7--7--7--|--3---3----3----3--3--3--|--3---3----3----3----3---||
--5---5----5----5--5--5--|--4---4----4----4--4--4--|--3---3----3----3----3--*||
--7---7----7----7--7--7--|--5---5----5----5--5--5--|--5---5----5----5----5--*||
--5---5----5----5--5--5--|--5---5----5----5--5--5--|--5---5----5----5----5---||
--5---5----5----5--5--5--|--3---3----3----3--3--3--|--3---3----3----3----3---||


   E.  S E  Q    E  E  E     E.  S E  Q    E  E  E     E.  S E  Q    E  E  E  
---0---0----0----0--0--0--|--2---2----2----2--2--2--|--3---3----3----3--3--3--|
---0---0----0----0--0--0--|--2---2----2----2--2--2--|--3---3----3----3--3--3--|
*--0---0----0----0--0--0--|--2---2----2----2--2--2--|--4---4----4----4--4--4--|
*--2---2----2----2--2--2--|--4---4----4----4--4--4--|--5---5----5----5--5--5--|
---2---2----2----2--2--2--|--4---4----4----4--4--4--|--5---5----5----5--5--5--|
---0---0----0----0--0--0--|--2---2----2----2--2--2--|--3---3----3----3--3--3--|


  E.  S E  Q    Q    E       W.                                               
--5---5----5----5----5---||--0----------------|-------------------|-----|-----|
--5---5----5----5----5---||--2----------------|-------------------|-----|-----|
--6---6----6----6----6--*||--0----------------|-------------------|-----|-----|
--7---7----7----7----7--*||--2----------------|-------------------|-----|-----|
--7---7----7----7----7---||--0----------------|-------------------|-----|-----|
--5---5----5----5----5---||--0----------------|-------------------|-----|-----|

Close panel

Help Rate This Tab by Voting Up or Down

Vote Up Vote Down
Rating: -1 +1

Other Songs Like This

x

Copyright © 2019