Song: Through The Window

Band: Marlow Honey

Rating: -1 +1 Views: 55



    

																				#----------------------------------PLEASE NOTE---------------------------------#
#This file is the author's own work and represents their interpretation of the #
#song. You may only use this file for private study, scholarship, or research. #
#------------------------------------------------------------------------------


Gtr I (E A D G B E) - 'Through The Window'



    

   
    Gtr I
    
||------------------------------0--||
||o-----------------------------0-o||
||------1---1h2-----2p1-----1---1--||
||--------2-----0-------0h2-----2--||
||o---2-----------2-------------2-o||
||--0-------------------------0-0--||


    
||------------------------------0--||
||o-----------------------------0-o||
||----------1h2-----2p1-----1---1--||
||------2-------0-------0h2-----2--||
||o---2---2-------2-------------2-o||
||--0-------------------------0-0--||


  
||--0---0-------------2-----2-----2-------------------2-----2-----2-----|
||o---0---0-----2-------2-----2-----2---2---2---2-------2-----2-----2---|
||----------------2-------2-----2-----2---2-------2-------2-----2-----2-|
||----------1S2-----2-------------------------2-----2-------------------|
||o---------------------------------------------------------------------|
||----------------------------------------------------------------------|


  
|-----------0-----||
|-2---2-----0----o||
|---2-------1-----||
|-----------2-----||
|-----------2----o||
|-------0-0-0-----||

E Bm A E (li
fde
sten to the song to figure out strumming)


E                                        Bm
Why don't you tell me, tell me something crazy

Bm                          A                               E

Tell me that you might love me, even though we've never spoke

E			                     Bm
Why don't you tell me, that you think highly of me

Bm      	       A		   E

Every time our eyes meet, through the window

C#                 A          E

Could I have loved you before?

C#          A                             E

I had dejavue when I saw you walk out the door



(Play this over the next three lines)
|-------------------------------------------------------------|
|----12-------12----------------12-------12-------------------|
|-------13-11----13-11-13p11-------13-11----13-11-13p11-------|
|-14-------------------------14-------------------------------|
|-------------------------------------------------------------|
|-------------------------------------------------------------|
  
|---------------------------|----------------------|
|---12-------12-------------|-------12-------12----|
|------13-11----13-11-13p11-|-11h13----11h13-------|
|14-------------------------|----------------------|
|---------------------------|----------------------|
|---------------------------|----------------------|

|----------------------|
|-------12-------12----|
|-11h13----11h13-------|
|----------------------| x2
|----------------------|
|----------------------|

I see it in your eyes, I see it in your smile

A face I've never seen, but always felt

I felt you all my life and there, there you stand before me
 

||------------------------------0--||
||o-----------------------------0-o||
||------1---1h2-----2p1-----1---1--||
||--------2-----0-------0h2-----2--|| x2
||o---2-----------2-------------2-o||
||--0-------------------------0-0--||


E                         Bm
Well girl, saw you on the movie screen
A                                                        E

Laying there so delightfully, you character was about my age
E                        Bm
And your long dark hair, it brought out the smile

I just stared for awhile rewinding over and over again

C#                 A          E

Could I have loved you before?

C#          A                             E

I had dejavue and I heard your voice some more


(Play this over the next three lines)
|-------------------------------------------------------------|
|----12-------12----------------12-------12-------------------|
|-------13-11----13-11-13p11-------13-11----13-11-13p11-------|
|-14-------------------------14-------------------------------|
|-------------------------------------------------------------|
|-------------------------------------------------------------|
   
|---------------------------|----------------------|
|---12-------12-------------|-------12-------12----|
|------13-11----13-11-13p11-|-11h13----11h13-------|
|14-------------------------|----------------------|
|---------------------------|----------------------|
|---------------------------|----------------------|
   
|----------------------|
|-------12-------12----|
|-11h13----11h13-------|
|----------------------| x2
|----------------------|
|----------------------|

I see it in your eyes, I see it in your smile

A face i've never seen, but always felt

I felt you all my life and there, there you stand before me

Close panel

Help Rate This Tab by Voting Up or Down

Vote Up Vote Down
Rating: -1 +1

Other Songs Like This

x

Copyright © 2019