Song: Echo Beach Bass

Band: Martha And The Muffins

Rating: -1 +1 Views: 242



    

																				from jenks6804@msn.com

echo beach

martha and muffins 



    

INTRO-GUITAR, THEN BASS
G-------------------------|   |-------------------------------------|
D-------------------------|   |-------------------------------------|
A-0-3-0-2-0-2-0-5-5-3-3-3-|X3 |---0-3-0-2-0-2-0---------------------|
E-------------------------|   |-----------------3333-0000-1111-3333-|

G-------------------------|------------------------|
D-------------------------|------------------------|
A-0-3-0-2-0-2-0-5-5-3-3-3-|0-3-0-2-0-2-0-5-5-7-7-7-|x4-----main verse
E-------------------------|------------------------|

G-------------------------|    |-----------------|
D-------------------------|x2  |-----------------|
A-------2-3-5-5-5---------|    |---------5-7-7-7-|x2---bridge
E-3-3-5-------------------|    |-5-5-7-8---------|

"from nine to five i have to spend my time at work" etc

sax solo

G-------------------------|    |-------------------------------------|
D-------------------------|    |-------------------------------------|
A-------------------------|    |---0-3-0-2-0-2-0---------------------|x2
E-1111--3333--------------|    |------------------3333-0000-1111-3333|

bass solo

G-------------------------|  
D-------------------------| then repeat part intro, then repeat main verse, then bridge
A-0-3-0-2-000-3-2-000-----| |
E-------------------------|   


G-------------------------|    |-------------------------------------|
D-------------------------|    |-------------------------------------|
A-------------1111-3-1-0--| x2 |---0-3-0-2-0-2-0---------------------|repeat til end
E-1111--3333-------------3|    |------------------3333-0000-1111-3333|


there are fills towards the end of the sond, but i couldnt be bother working them out...have fun

Close panel

Help Rate This Tab by Voting Up or Down

Vote Up Vote Down
Rating: -1 +1

Other Songs Like This

x

Copyright © 2019