Song: Loud As War Bass

Band: Maxeen
Composed By: Maxeen, Tom Bailey

Rating: -0 +0 Views: 59



    

																				-------------------------------------------------------------------------------
	Loud as War - Maxeen
-------------------------------------------------------------------------------

Tuning: Standard

0:43 Intro
G|--------5----------------|
D|-----3h5--5p3---3h5--33--| x4
A|--3----------3-----33----|
E|-------------------------|



    

0:55 Verse
G|----------------------------------------|
D|------------------3---------------------|
A|-------------------3--------------------|
E|--3---1---3---1--------1---3--11111111--|

1:05 Chorus
G|--------5----------------|
D|-----3h5--5p3---3h5--33--| x6
A|--3----------3-----33----|
E|-------------------------|

1:17 ~Break~

1:21 Pre-Verse
G|--------5----------------|
D|-----3h5--5p3---3h5--33--| x2
A|--3----------3-----33----|
E|-------------------------|

1:27 Verse
G|----------------------------------------|
D|------------------3---------------------|
A|-------------------3--------------------|
E|--3---1---3---1--------1---3--11111111--|

1:38 Chorus
G|--------5----------------|
D|-----3h5--5p3---3h5--33--| x6
A|--3----------3-----33----|
E|-------------------------|

1:54 ~Break~

2:10 Bridge I
G|---------||----------------------------------------|
D|---------||---------------------3h5--33---3h5--33--| x2
A|--3/13\--||--3333333333333333-3----33---3----33----|
E|---------||----------------------------------------|

2:20
G|-----------------------------------||-------5----------------|
D|-----------------3333333333333333--||----3h5--5h3---3h5--33--| x2
A|-----------------------------------||--3---------3-----33----|
E|--111111111111111------------------||------------------------|

2:38 Bridge II
G|--5555555555555555-------------------|
D|-------------------3333333333333333--| x3
A|-------------------------------------|
E|-------------------------------------|

3:00 Chorus
G|--------5----------------|
D|-----3h5--5p3---3h5--33--| Repeat Until Break/End
A|--3----------3-----33----|
E|-------------------------|

3:22 ~Break/End~

Beast song!! Thinkin bout doin the album

View Albums that This Song Appears On...

  • Hello Echo: Tour Edition

    Genre: Pop/Rock Label: Warner Bros. Song Duration on Album: 3:37 Album Duration: 39:47

    Release Date: August 29, 2006

    Styles: Alternative Pop/Rock, Alternative/Indie Rock

Close panel

Help Rate This Tab by Voting Up or Down

Vote Up Vote Down
Rating: -0 +0

Other Songs Like This

x

Copyright © 2017