Song: Hiding

Band: Meiko
Composed By: Meiko

Rating: -0 +0 Views: 100



    

																				Artist: Meiko
Album: Meiko
Year: 2007
Title: Hiding
 
Intro

  Asus2          Cmaj7           Asus2	      Cmaj7
|--------------------------------------------------------------------------|
|--------0-----0--------0-----0--------0-----0------0-------0------0-----0-|
|------2-----2--------0-----0--------2-----2------0-------0------0-----0---|
|---(2)----2-------(2)----2-------(2)----2-----(2)------2------2-----2-----|
|--0-------------3---------------0------------3----------------------------|
|--------------------------------------------------------------------------|



    


Verse

  Asus2          Cmaj7       
|--------------------------------|
|-------0------0-------0------0--|
|-----2------2-------0------0----|
|--(2)-----2------(2)-----2------|
|-0--------------3---------------|
|--------------------------------|


Chorus

  Am	          Cmaj7         F	        D7sus2		Ending
|-----------------------------------------------------------|-------------|
|-------1------1-------0-----0--------1------1------1-----1-|-----1-----1-|
|-----2------2-------0-----0--------2------2------2-----2---|---2-----2---|
|--(2)-----2------(2)----2-------(3)-----3------0-----0-----|-0-----0-----|
|-0--------------3------------------------------------------|-------------|
|------------------------------1----------------------------|-------------|


Asus2
Running out of time

      Cmaj7
I know I got to find you

Asus2			    Cmaj7
Wonder if you're even there

Asus2
Taking me for granted

  Cmaj7
I can barely stand it

Asus2			Cmaj7
Wonder why I even care


	     Am		    Cmaj7
Oh no, baby, you, can't you see?

       F            D7sus2
I'm hiding in your arms

	     Am             Cmaj7
Oh no, baby, you, can't you see?

	      F               D7sus2
Don't want to find myself in harm


asus2
Showing me the way

  Cmaj7
I thought I heard you say

     asus2				Cmaj7
That good things come to those who wait

asus2
Watching every hour

Cmaj7
Watch you going sour

Asus2			     Cmaj7
Watching you control my fate


	     Am		    Cmaj7
Oh no, baby, you, can't you see?

       F           D7sus2
I'm hiding in your arms

	     Am             Cmaj7
Oh no, baby, you, can't you see?

	      F              D7sus2
Don't want to find myself in harm

Running out of space
I can't see your face
I've forgotten how you used to be
Saying that you love me
That you're thinking of me
Taking my identity

	     Am		    Cmaj7
Oh no, baby, you, can't you see?

       F           D7sus2
I'm hiding in your arms

	     Am             Cmaj7
Oh no, baby, you, can't you see?

	      F              D7sus2
Don't want to find myself in harm

	     Am		    Cmaj7
Oh no, baby, you, can't you see?

       F           D7sus2
I'm hiding in your arms

	     Am             Cmaj7
Oh no, baby, you, can't you see?

	      F              D7sus2
Don't want to find myself in harm



For any comments or suggestions mail to rems_braz@hotmail.fr

View Albums that This Song Appears On...

  • Meiko

    Label: CD Baby / Meiko Song Duration on Album: 3:16

    Release Date: August 5, 2008

    Moods: Earnest, Extroverted, Fun, Innocent, Intimate, Laid-Back/Mellow, Passionate, Playful, Quirky, Romantic, Sophisticated, Warm, Whimsical, Amiable/Good-Natured, Bittersweet, Bright

    Styles: Alternative Singer/Songwriter, Alternative/Indie Rock

    Themes: In Love, Rainy Day

Close panel

Help Rate This Tab by Voting Up or Down

Vote Up Vote Down
Rating: -0 +0

Other Songs Like This

x

Copyright © 2017