Song: Sometimes Bass

Band: Miami Horror

Rating: -1 +1 Views: 148



    

																				-------------------------------------------------------------------------------
			     SOMETIMES - Miami Horror
-------------------------------------------------------------------------------

Tabbed By : Andy Z
e-mail: azzazazza (at) hotmail.com

Tuning:Standard



    

Part 1
G|------------------------------------------------------------------|
D|----------------------------------5-5-5-5-5-5-5-3-3-3-3-3-3-3-3-3-|
A|-3-3-3-3-3-3-3-5-6-6-6-6-6-6-6-6----------------------------------|
E|------------------------------------------------------------------|

Part 2
G|----5-----5--------8-----8---10-------------12-------------10---8-|
D|------------------------------------------------------------------|
A|-3----3-3---5-6--6---6-6---8----10-8-10--10----8-8--8-8--8----6---|
E|------------------------------------------------------------------|
      "With eyes wide shut we lay stagnant awake...."



Playing order:

6 x Part 1

6 x Part 2

6 x Part 1

4 x Break

6 x Part 1

Close panel

Help Rate This Tab by Voting Up or Down

Vote Up Vote Down
Rating: -1 +1

Other Songs Like This

x

Copyright © 2018