Song: Dont Be On With Her

Band: Miami Horror

Rating: -1 +1 Views: 58



    

																				DON'T BE ON WITH HER - Miami Horror

To effectively play this without the recording you will need three guitarists, 
(one playing the main riff, 
one playing the chords, and one playing the guitar solos).
Guitar 1 needs a capo on the 3rd fret (the tab is relative to the capo).
Guitars 2 & 3 play without a capo! Otherwise the song will sound terrible.




    


GUITAR 1 (CAPO 3rd):

Main riff:
Capo: 3rd

e||-----2--0-0-2----2--4-0--0--2-----||
B||-----2--2-2-2----2--2-2--2--2-----||
G||*----2--2-2-2----2--2-2--2--2----*||
D||*--------------------------------*||
A||----------------------------------||
E||----------------------------------||

Variation ("1:32-1:47" and "2:47- 3:01")
Capo: 3rd

e||-----2--0--0--2-0--------||
B||-----2--2--2--2-2--------||
G||*----2--2--2--2-2-------*||
D||*-----------------------*||
A||-------------------------||
E||-------------------------||



GUITAR 2 (NO CAPO):

Chords:
No Capo!

        F           G          Am
e||-----1-----------3----------5-----||
B||-----1-----------3----------5-----||
G||*----2-----------4----------5----*||
D||*----3-----------5----------7----*||
A||-----3-----------5----------7-----||
E||-----1-----------3----------5-----||



GUITAR 3 (NO CAPO)

Guitar solo (1:02):
No Capo!

e|--------------------3-3--------------------------0-1-3----|
B|---------------------------------------------1-3----------|
G|----5--5--0--2-4--------4-2-5-0-2--0--2-0-----------------|  x2
D|----------------------------------------------------------|
A|----------------------------------------------------------|
E|----------------------------------------------------------|


Guitar Solo (1:17 and 2:02):
No Capo!

e|----9b10r9\8----10~~~~~~~~10\8-----------------7~~~8~~~----8~~~~~~~~---|
B|-------------------------------------8~~~10~~~-------------------------|
G|---------------------------------7~~~----------------------------------|
D|-----------------------------------------------------------------------|
A|-----------------------------------------------------------------------|
E|-----------------------------------------------------------------------|


Guitar solo (2:32):
No Capo!

e|------------9b10----------------------------------------------|
B|----10-10-8------10--8-8-10--8-10------------3b4r3------------|
G|---------------------------------------2-2-0------5--0-0-2----|
D|--------------------------------------------------------------|
A|--------------------------------------------------------------|
E|--------------------------------------------------------------|

e|----20-19-17-15-17-15----15---------------13-12----------12-16b17\15----|
B|----------------------17----17-15-13------------15-13-15----------------|
G|------------------------------------------------------------------------|
D|------------------------------------------------------------------------|
A|------------------------------------------------------------------------|
E|------------------------------------------------------------------------|

************************************

 \   slide down
 ~   vibrato
 b   Bend
 br  Bend release

************************************

Lyrics + Chords:

F               G    Am   F

    There's no other way around it
           G       Am     F

    Can't take you by the hand
         G        Am
    You know it's wrong
        F

    But that's the song
        G          Am
    So don't be on with her

    F                 G    Am
    Don't be on with her
    F                 G    Am
    Don't be on with her
    F                 G    Am
    Don't be on with her
    F                 G    Am
    Don't be on with her

Close panel

Help Rate This Tab by Voting Up or Down

Vote Up Vote Down
Rating: -1 +1

Other Songs Like This

x

Copyright © 2018