Song: Walking Blues - 12 Bar Blues Scale Bass

Band: Misc

Rating: -1 +1 Views: 978

Alright this is just a warmup, good to stretch your fingers out with, its simple, and 
quite well to an improv., depending on how fast or slow you play it, it can become a 
of things.

Tuning:Standard (E A D G)



    

Key: /= Slide

G-----------------------------------------0---------------------|
D---------0---------------00----------2-4---4-2-----------0-----|
A-----2-4---4-2-------2-4----4-2--0-4-----------4-----2-4---4-2-|
E-0-4-----------4-0-4-----------4-----------------0-4---------4-|

G--------1--------------------------------------------|
D----1-4-------2-4---------0--------------------------|
A--2-------0-4---------2-4---4-2----------------------|
E------------------0-4-----------4-0-----12/0---------|



    

Alright, now the slide i just added in coz its always sounded cool when i played it, now 
as many times as you want, fitting in a solo here or there, but just have fun with it, 
y'all later, Peace.

Help Rate This Tab by Voting Up or Down

Vote Up Vote Down
Rating: -1 +1

Other Songs Like This

x

Copyright © 2015