Song: Spongebob Squarepants - Ending Theme

Band: Misc Cartoons

Rating: -1 +2 Views: 357

Tuning: Standard (E A D G B E)

This is the song that plays during the ending credits of Spongebob episodes. I decided 
make an arrangement for it on one guitar. I use my fingers to pick this.



    


Let Ring Throughout

Part 1
|-----7-7------7-7--|
|-----9-9------9-9--|
|-------------------|
|-----------9-------|
|--7----------------|
|-------------------|



    


Part 2
|--7-6--7-9--7--7-7-----7-7-----7-7--|
|------------------------------------|
|------------4---------------4-------|
|------------------------------------|
|--7-----------------7---------------|
|------------------------------------|


Part 3
|------14-14------14-14------14-14------14-14--|
|------12-12------12-12------12-12------12-12--|
|----------------------------------------------|
|-------------13--------------------13---------|
|--14--------------------14--------------------|
|----------------------------------------------|


Part 4
|------12--12--14-16-14-16-14--|------12--12--14-15--15--15-14------|
|------12--12--13----13----13--|------12--12-----14--14--14-----17--|
|--------------13----13----13--|-----------------14--14--14---------|
|------14------13----13----13--|------14---------14--14--14---------|
|----------14------------------|----------14------------------------|
|--12--------------------------|--12--------------------------------|


|----------------------------------9-----11--|
|--12-11-12-14-12--12-12--12-11-12---12------|
|------------------------------------8-------|
|--------------9----------9------------------|
|--------------------------------------------|
|--12----------------------------------------|


|--12--------------------------|
|------12-12------12-12--------|
|------13-13------13-13--13----|
|------------------------14----|
|-------------14---------14----|
|--12--------------------12----|

Song Order:
Part 1 (4x)
Part 2 (4x)
Part 3 (2x)
Part 1
Part 2
Part 4

Help Rate This Tab by Voting Up or Down

Vote Up Vote Down
Rating: -1 +2

Other Songs Like This

x

Copyright © 2015