Song: Bobs Burgers Theme Ukulele

Band: Misc Cartoons

Rating: -0 +0 Views: 34

Loren Bouchard
Song: Bob's Burgers opening theme




    

A very short ukulele song for the opening sequence to Bob's Burgers.


Part 1



    

     Bm7 (2nd variation)            A
A |---2--5--2-2--5-5--2-2--5-5-2----0--2--0-0--2-2--0-0--2-2------------|
E |---2--2--2-2--2-2--2-2--2-2-2----0--0--0-0--0-0--0-0--0-0------------|
C |---2--2--2-2--2-2--2-2--2-2-2----1--1--1-1--1-1--1-1--1-1------------|
G |---2--2--2-2--2-2--2-2--2-2-2----2--2--2-2--2-2--2-2--2-2------------|


      Gbm                           A
A |---0--4-4-4--4-4-4-4-4-4---------0--2--0-0---------------------------|
E |---2--2-2-2--2-2-2-2-2-2---------0--0--0-0---------------------------|
C |---1--1-1-1--1-1-1-1-1-1---------1--1--1-0---------------------------|
G |---2--2-2-2--2-2-2-2-2-2---------2--2--2-2---------------------------|


Part 2
 Use repetitive rhythmic strumming on these chords.
 
       G                            Cm
A |----2----------------------------3-----------------------------------|
E |----3----------------------------3-----------------------------------|
C |----2----------------------------3-----------------------------------|
G |----0----------------------------0-----------------------------------|


Song fades out
End



Feedback: E_Town_Punk@hotmail.com

Close panel

Help Rate This Tab by Voting Up or Down

Vote Up Vote Down
Rating: -0 +0

Other Songs Like This

x

Copyright © 2017