Song: Grand Theft Auto San Andreas Theme

Band: Misc Computer Games

Rating: -1 +1 Views: 106
GTA San Andreas Theme Song Guitar Tab.
I was surprised no one has tabbed this awesome theme, so I decided to do it.
This is my first tab and I seriously need some tips and critisizms.

Play it as numbered ( number 1, play first [intro] - number 2 play second [Main]),
And play them as many times as required in Repeat x Times.



    

Note: You may use a bass guitar for playing the Intro, Aftermain, Aftermain repeat and the Closure.

1) Intro 
Starts: 0:28
Repeat 5 times

e|------------------------------------------|
B|------------------------------------------|
G|------------------------------------------|
D|------------------------------------------|
A|------------------------------------------|
E|-5-2-0-2v---14h13h14--2---2-0-5-2---------| x5



    

2) Main:
Starts: 0:53
Repeat 4 times

e|----14-10-9h10h9-7h9h7h9-5h7h5h7-9-2-5-2--|
B|------------------------------------------|
G|------------------------------------------|
D|------------------------------------------|
A|------------------------------------------|
E|-2----------------------------------------| x4

3) Aftermain:
Starts: 1:12
Repeat 2 times

e|------------------------------------------|
B|------------------------------------------|
G|------------------------------------------|
D|------------------------------------------|
A|------------------------------------------|
E|-5-2-0-2v---14h13h14--3-10-2-7-2-5v-2-----| x2


4) Alternative main:
Starts: 1:23
Repeat 2 times

e|----14-10-9h10h9-7h9h7h9-5h7h5h7-9-2-5-2--|
B|------------------------------------------|
G|------------------------------------------|
D|------------------------------------------|
A|------------------------------------------|
E|------------------------------------------| x2

5) Aftermain repeat:
Starts: 1:32
Repeat 2 times
e|------------------------------------------|
B|------------------------------------------|
G|------------------------------------------|
D|------------------------------------------|
A|------------------------------------------|
E|-5-2-0-2v---14h13h14--3-10-2-7-2-5v-2-----| x2

6) Closure:
Starts: 1:42
Repeat (Do not repeat, just play it one time)

e|------------------------------------------|
B|------------------------------------------|
G|------------------------------------------|
D|------------------------------------------|
A|------------------------------------------|
E|-3--3v------------------------------------|

Thank you.

Help Rate This Tab by Voting Up or Down

Vote Up Vote Down
Rating: -1 +1

Other Songs Like This

Latest Sheets, Music, Lyrics and Tabs

Latest Discussion about a Sheet, Song, Lyric or Tab

x

Copyright © 2015