Song: Transformers - Arrival To Earth

Band: Misc Soundtrack

Rating: -2 +3 Views: 1780


    

																				Transformers - Arrival to Earth


This is the melody form Transformers soundtrack. Hope you enjoy it, my first tab :)



    


E-----------------|-----------------|-----------------|-----------------|
B-----------------|-----------------|-----------------|-----------------|
G-----------------|-----------------|-0---------------|-----------------|
D------------1----|-0---------------|---1-3--1-0------|-------1---0-----|
A-----3----3----1-|----1-3---3--3---|-------------3---|-3---3---1----1--|
E--3------3-------|---1----4---3----|---------------3-|----3--------1---|

E-----------------|-----------------|-----------------|-----------------|
B-----------------|-----------------|-----------------|-1--1-4---3------|
G-----------------|-----------------|-----------------|---0----3-----3--|
D-------------1-0-|-------------0-1-|-----0--1--3-----|-------------3---|
A--3-----3--1-----|-3----1-3--1-----|--3--------------|-----------------|
E-----4-----------|----3------------|-----------------|-----------------|

E-----------------|-3------1--------|-----------------|-----------------|
B--1----1----1----|-----4----4-3-1--|----1---1--4-----|--3----1---1-----|
G----1-----0------|-----------------|--0----0------3--|-----3--1--------|
D-----------------|-----------------|-----------------|----3------------|
A-----------------|-----------------|-----------------|-----------------|
E-----------------|-----------------|-----------------|-----------------|

E-----------------|-----------------|------------1----|--8~~~~~~-------||
B-----4-3--1------|------1-----3-4--|--1--3--4--------|----------------||
G--3--------------|-0-3-----3-------|-----------------|----------------||
D-----------------|-----------------|-----------------|----------------||
A-----------------|-----------------|-----------------|----------------||
E-----------------|-----------------|-----------------|----------------||


That is it, easy for beginners to practise.

Help Rate This Tab by Voting Up or Down

Vote Up Vote Down
Rating: -2 +3

Other Songs Like This

Latest Sheets, Music, Lyrics and Tabs

Latest Discussion about a Sheet, Song, Lyric or Tab

x

Copyright © 2015