Song: Drake And Josh - Oh Cranky Josh

Band: Misc Soundtrack

Rating: -0 +0 Views: 80

-------------------------|
-------------------------|
-------------------------|
-------------------------|
-2--7--5-----2-2-2-2-----|
-0--5--3-----0-0-0-0-----|

-------------------------|
-------------------------|
-------------------------|
-------------------------|
-2--7--5-----2-2-2-2-----|
-0--5--3-----0-0-0-0-----|



    

Repeat this Tab sometimes and improvise own blues
songs !!!It

Close panel

Help Rate This Tab by Voting Up or Down

Vote Up Vote Down
Rating: -0 +0

Other Songs Like This

x

Copyright © 2017