Song: Better Call Saul

Band: Misc Television

Rating: -0 +0 Views: 97

-------------------------------------------------------------------------------
                             Intro Riff - Better Call Saul
-------------------------------------------------------------------------------
Tabbed by: Matt Walter
Tuning: Standard

Fun and quick riff...you get the idea!



    

e|--5----9--------8----12-10-8----5----9-----------------------------------5--|
B|--5------9------8---------------5------9---------------------------------5--|
G|--6--------9----9---------------6--------9----9-8-7-5--------------------6--|
D|--7-------------10--------------7---------------------------10h12--------7--|
A|--7-------------10--------------7-----------------------5h7-------0h3p0--7--|
E|--5-------------8---------------5-----------0----------------------------5--|


************************************



    

| /   slide up
| \   slide down
| h   hammer-on
| p   pull-off
| ~   vibrato
| +   harmonic
| x   Mute note
| b   Bend
| pb  Pre-bend
| br  Bend release
| pbr Pre-bend release
| brb Bend release bend

************************************

Close panel

Help Rate This Tab by Voting Up or Down

Vote Up Vote Down
Rating: -0 +0

Other Songs Like This

x

Copyright © 2017