Song: Dob - How

Band: Misc Unsigned Bands

Rating: -1 +1 Views: 265

Intro

e|---------|---------------------------------------------------------------|
b|---------|---------------------------------------------------------------|
g|---------|---------------------------------------------------------------|
d|---------|---------------------------------------------------------------|
a|---------|---------------------------------------------------------------|
D|12/17\-0-|0-14h15-0-14p12-0-10h12-0-14p12-0-14h15-0-14p12-0-10h12-0-14p12|



    

e|------------------------------------------------------------------|
b|------------------------------------------------------------------|
g|------------------------------------------------------------------|
d|------------------------------------------------------------------|
a|------------------------------------------------------------------|
D|0-14h15-0-14p12-0-10h12-0-14p12-0-14h15-0-14p12-0-10h12-0-14p12-0-|

               Chorus
                                                  play heading into verse
e|-----------------------------------------------|----------------------|
b|-----------------------------------------------|----------------------|
g|-----------------------------------------------|----------------------|
d|0~0~8~8-8---5~5~7~5-7-3-0~0~8~8-8---5~5~7~5-7-3|----------------------|
a|0~0~8~8-8---5~5~7~5-7-3-0~0~8~8-8---5~5~7~5-7-3|0-0-7h8-0-7p5-0-3h5-0-|
D|0~0~8~8-8-xx5~5~7~5-7-3-0~0~8~8-8-xx5~5~7~5-7-3|0-0-7h8-0-7p5-0-3h5-0-|

              Verse



    

e|-------------------------------------------------------------------------|
b|-------------------------------------------------------------------------|
g|-------------------------------------------------------------------------|
d|-------------------------------------------------------------------------|
a|0~~5-5-xx8~~7h9-5h75-5-xx8~~7h9-5h70-0-xx3~~-3h5-2p0-0-0-xx3~~-3h5-2p0-0~|
D|0~~5-5-xx8~~7h9-5h75-5-xx8~~7h9-5h70-0-xx3~~-3h5-2p0-0-0-xx3~~-3h5-2p0-0~|

             Bridge
e|--------------------|
b|--------------------|
g|--------------------|
d|0~~~~0~~~~0~~~~0~~~~|
a|0~~~~0~~~~0~~~~0~~~~|
D|0~~~~0~~~~0~~~~0~~~~|

             Solo

e|---------------------------------------------------12h14h15-15~-|
b|-----14~15-15~~---------------------------12h14h15--------------|
g|8~11~14~15-15~~------------------12h14h15-----------------------|
d|------------------------12h14h15--------------------------------|
a|---------------12h14h15-----------------------------------------|
D|----------------------------------------------------------------|

e|------------------------------------19p17---21p17--22~~-|
b|---------------------18p17---20p17-------17------17-----|
g|15p12--16p14--17p15-------17------17-------x4------x4---|
d|-----12-----14-----15-------x4------x4------------------|
a|-------x4-----x4-----x8---------------------------------|
D|--------------------------------------------------------|

e|--------------------------------------------------------------9~-|
b|12~~12-10-8-7-10/5~-----------------------9~------------8h9h11---|
g|11~~11--9-7-6--6/4~--10~------------7h8h10--------8h9h11---------|
d|------------------------------7h8h10--------8h9h11---------------|
a|------------------------7h8h10-----------------------------------|
D|-----------------------------------------------------------------|

e|--------------9h10h1212~~12~12--10--9--------------------------|
b|-------9h10h12-------------------------12-10-9-----------------|
g|9h10h12----------------------------------------12109-----------|
d|----------------------------------------------------9101210~~\-|
a|---------------------------------------------------------------|
D|---------------------------------------------------------------|

              Breakdown
     Intro x4
     Chorus x2
     Verse x4
     Intro x1
     Chorus x2
     Verse x4
     Intro x1
     Chorus x2
     Bridge x1
     Solo x1
     Intro x4
     chorus x4

Close panel

Help Rate This Tab by Voting Up or Down

Vote Up Vote Down
Rating: -1 +1

Other Songs Like This

x

Copyright © 2017